Oops, an error
Loading. Please wait.

Mississippi Queen Tab

version 1
version 1

Whole song

Video

455,547 views 642 this week
56 commentsread comments
1 2 3 4 5
accurate
x 107
add to favorites
launch autoscroll
font size
0
reset
how to read this tab
guitar tuner
Autoscroll
slow
fast
+/-
esc
set tempo
stop
Help us to improve Ultimate-Guitar.com Take our survey!
×
Mountain
"Mississippi Queen"


[Intro]

e|----------------|
B|----------------|
G|----------------|
D|-------5--------| X2
A|---------7~-----|
E|--5-7-----------|


[Riff #1]

e|--------19-----------------------------------------------------------|
B|--19b21----19b21r19--17---------------17-19-17~--------17b19-17~-----|
G|------------------------18-16~--16-18------------16b18---------------|
D|---------------------------------------------------------------------|
A|---------------------------------------------------------------------|
E|---------------------------------------------------------------------|

e|------------19--------------------------------------------------------|
B|--19b21----19b21r19--17---------------17-19-17~--------17b19--17~-----|
G|------------------------18-16~--16-18------------16b18----------------|
D|----------------------------------------------------------------------|
A|----------------------------------------------------------------------|
E|----------------------------------------------------------------------|

e|------------19---------------------------|
B|--17--19b21----19b21r19--17~-----17-17~--|
G|------------------------------18---------|
D|-----------------------------------------|
A|-----------------------------------------|
E|-----------------------------------------|


[Verse]

e|-------------------------------------------|
B|-------------------------------------------|
G|-------------------------------------------|
D|--7/9-9-9-9--7/9-7~--9--5/7-7-7-7--7-7-5-7-|
A|--7/9-9-9-9--7/9-----9--5/7-7-7-7--7-7-5-7-|
E|--5/7-7-7-7--5/7-----7--3/5-5-5-5--5-5-3-5-|
                         Mississippi Queen   
e|---------------------------------------|
B|---------------------------------------|
G|--7/9-9-9-9-----------------------7-9--|
D|--7/9-9-9-9-----------------------7-9--|
A|--5/7-7-7-7-----------------------5-7--|
E|--5/7-7-7-7--------------0-0-0----5-7--|
                   If ya know what I mean
e|--------------------------------------|
B|--------------------------------------|
G|--7/9-9-9-9---------------------------|
D|--7/9-9-9-9---------------------------|
A|--5/7-7-7-7------------------------7--|
E|--5/7-7-7-7----------------0-2b3-0----|
                      she taught me    

e|----------------------|
B|----------------------|
G|----------------------|
D|--5/7-7-7-7--7-7-5-7--|
A|--5/7-7-7-7--7-7-5-7--|
E|--3/5-5-5-5--5-5-3-5--|

e|---------------------------------------|
B|---------------------------------------|
G|--7/9-9-9-9-----------------------7-9--|
D|--7/9-9-9-9-----------------------7-9--|
A|--5/7-7-7-7-----------------------5-7--|
E|--5/7-7-7-7--------------0-0-0----5-7--|

e|--------------------------------------|
B|--------------------------------------|
G|--7/9-9-9-9---------------------------|
D|--7/9-9-9-9---------------------------|
A|--5/7-7-7-7------------------------7--|
E|--5/7-7-7-7----------------0-2b3-0----|

e|------------------------------------------------|
B|------------------------------------------------|
G|------------------------------------------------|
D|--7/9-9-9-9--7/9-7~~-9--5/7-7-7-7--7-7-5-7---2--|
A|--7/9-9-9-9--7/9-----9--5/7-7-7-7--7-7-5-7---2--|
E|--5/7-7-7-7--5/7-----7--3/5-5-5-5--5-5-3-5---0--|


[Interlude]

e|----------------|
B|----------------|
G|----------------|
D|-------5--------|  
A|---------7~-----|
E|--5-7-----------|

e|------7----------|
B|--7b9---7b9r7-5--|
G|-----------------|  
D|-----------------|
A|-----------------|
E|-----------------|

e|-------------------|
B|--7b8-7b8-7b8r7-5--|
G|-------------------| 
D|-------------------|
A|-------------------|
E|-------------------|

e|-------------------------10----------------|
B|--10b12-10b12~----10b12------10b12r10-8----|
G|----------------------------------------9--|
D|-------------------------------------------|
A|-------------------------------------------|
E|-------------------------------------------|

e|--10b12--10b12~----13b15r13--12-10--|
B|------------------------------------|
G|------------------------------------|
D|------------------------------------|
A|------------------------------------|
E|------------------------------------|

e|--12b10--------------------10-----------------|
B|--------12--10b12-10b12~--------10b12r10-8~---|
G|----------------------------------------------|
D|----------------------------------------------|
A|----------------------------------------------|
E|----------------------------------------------|

e|----------------|
B|----------------|
G|----------------|
D|-------5--------| X2
A|---------7~-----|
E|--5-7-----------|


[Solo]

e|--------19-----------------------19---------------|
B|--19b21----19b21r19-17-----19b21----19b21r19-17---|
G|-----------------------18-------------------------|
D|--------------------------------------------------|
A|--------------------------------------------------|
E|--------------------------------------------------|

e|----------------------------------------------|
B|----------------------------12b14--12-9-------|
G|--14b16-14-12-14b16-12------------------11-9--|
D|-----------------------14---------------------|
A|----------------------------------------------|
E|----------------------------------------------|

e|--------------------------------------------------|
B|--------15---------------------15b17-15-12--------|
G|--14b16----14b16-14-12-14------------------14-12--|
D|--------------------------10----------------------|
A|--------------------------------------------------|
E|--------------------------------------------------|

e|----------------------------------21b23--21b23--21-21b23-21-21b23--|
B|--19b21--19b21-------17--21^17-------------------------------------|
G|---------------16-18-----------------------------------------------|
D|-------------------------------------------------------------------|
A|-------------------------------------------------------------------|
E|-------------------------------------------------------------------|


[Outro]

(intro is played a couple of times to close the song)

e|----------------|
B|----------------|
G|----------------|
D|-------5--------|  repeat as needed
A|---------7~-----|
E|--5-7-----------|



************************************

| r  Release
| b  Bend
| /  Slide up
| ~  Vibrato
| ^  Bend

************************************
Suggest correction
comments
print report bad tab
56 comments total. Showing first comments. show 2 bad comments
+15 reply
ballroomofmars 50 wrote on March 25 2007, 12:07 pm

lots of hammer ons were tabbed as bends and most of this sounds hardly anything like the song

guest
You may want to rate the tab now too:
select rating
Please do not post tabs as comments. Select "correction" instead!