Oops, an error
Loading. Please wait.

Never In My Life tab

version 2
version 2

Whole song

Interactive

7,562 views 6 this week
3 commentsread comments
1 2 3 4 5
x 4
add to favorites
×
Save as Personal and add changes to this tab that will be seen only by you. Learn more ›
×
You can save this tab as Personal to edit and correct it or add notes. All changes will be seen only by you. Learn more »
launch autoscroll
font size
0
reset
how to read this tab
guitar tuner
edit
Autoscroll
slow
fast
+/-
esc
set tempo
stop
Author
Intro: play twice

-------------------------------------------------|
-------------------------------------------------|
-7-----------------------------------------------|
-7--10-9--10-9--10-9--10-9---5-5--7-7------------|
-5--10-9--10-9--10-9--10-9---5-5--7-7------------|
-----8-7---8-7---8-7---8-7---3-3--5-5------------|

Main Riff:

--------------------------------------------------------|
--------------------------------------------------------|
----------3b---------3b~---------3b---------------------|
------3-5----5-5-3-5---------3-5----5-5-3---------------|
--3-5--------------------3-5---------------5-3----------|
------------------------------------------------6-3-----|

 its hard to tell the exact strokes, but during the verses these chords are played.

------------------------------------------------------|
------------------------------------------------------|
---5----------------3---------------------------------|
---5------and-------3---------------------------------|
---3----------------1---------------------------------|
------------------------------------------------------|


*The solo and lead licks are mainly played in G minor,
exept for the last part of the verse, where E minor is used.
Suggest correction
Creating personal tab
Creating personal tab
You can edit any tab online and save it as your Personal.

You can edit, replace or remove any tab part or add personal notes – all changes will be seen only by you.

Personal tabs can be accessed anytime from any device, even offline.
Learn more »
comments
print report bad tab
3 comments total.
0 reply
68lpjr 10 Jul 09, 2010 06:57 AM

nice, leslie is the best

0 reply
atron montie 52 Mar 04, 2014 05:45 AM, edited at 03:38 pm

try this instead for the main riff----------------------------------------------------------|----------------------------------------------------------|----------3-----------3------------3----------------------|--------3---5---5-3-5------------3---5---5-3--------------|--3-4-5--------------------3-4-5-------------5-4-3----------|-------------------------------------------------6--------|

0 reply
atron montie 52 Mar 04, 2014 10:40 AM

try this instead for the main riff
----------------------------------------------------------|
----------------------------------------------------------|
----------3-----------3------------3----------------------|
--------3---5---5-3-5------------3---5---5-3--------------|
--3-4-5--------------------3-4-5-------------5-4-3--------|
---------------------------------------------------6------|

guest
You may want to rate the tab now too:
select rating
Wanna post a correction for this tab? Suggest correction