Oops, an error
Loading. Please wait.

Bayou tab

784 views 12 this week
no commentswrite comment
1 2 3 4 5
1 last vote to show rating
add to favorites
×
Save as Personal and add changes to this tab that will be seen only by you. Learn more ›
×
You can save this tab as Personal to edit and correct it or add notes. All changes will be seen only by you. Learn more »
launch autoscroll
font size
0
reset
how to read this tab
guitar tuner
edit
Autoscroll
slow
fast
+/-
esc
set tempo
stop
Time signature 3/4


[Intro]

 |---- x7  ----|
e|-------0-----|-------0-----|
B|-------------|---------0h1-|
G|---2-------2-|---2---------|
D|-2---2---2---|-2---2-------|
A|-------------|-------------|
E|-------------|-------------|

e|-------------------------------------------------|
B|-------1-----------1-----------1-----------1-----|
G|-2---------2-----------2-----------2-------0---0-|
D|---2-----------2-----------2-----------2---------|
A|-0---0---0---0---0---0---0---0---0---0---0---0---|
E|-------------------------------------------------|

e|-------------------------------------------------|
B|-------1-----------1-----------1-----------1-----|
G|-----------0-----------0-------0---0-------0---0-|
D|---3-----------3-----------3-----------0---------|
A|-------------------------------------------------|
E|-1---1---1---1---1---1---1---1---1---3---3---3---|

e|-------------------------------------------------|
B|-------1-----------1-----------1-----------1-----|
G|-----------2-----------2-----------2-------0---0-|
D|---2-----------2-----------2-----------2---------|
A|-0---0---0---0---0---0---0---0---0---0---0---0---|
E|-------------------------------------------------|

e|-------------------------------------------------|
B|-------1-----------1-----------1-----------1-----|
G|-----------0-----------0-------0---0-------0---0-|
D|---3-----------3-----------3-----------0---------|
A|-------------------------------------------------|
E|-1---1---1---1---1---1---1---1---1---3---3---3---|


[Verse 1]

e|-------------------------------------------------|
B|-------1-----------1-----------1-----------1-----|
G|-----------2-----------2-----------2-------0---0-|
D|---2-----------2-----------2-----------2---------|
A|-0---0---0---0---0---0---0---0---0---0---0---0---|
E|-------------------------------------------------|
                                 A shot    to the 
e|-------------------------------------------------|
B|-------1-----------1-----------1-----------1-----|
G|-----------0-----------0-------0---0-------0---0-|
D|---3-----------3-----------3-----------0---------|
A|-------------------------------------------------|
E|-1---1---1---1---1---1---1---1---1---3---3---3---|
  veins, ...                                  
e|-------------------------------------------------|
B|-------1-----------1-----------1-----------1-----|
G|-----------2-----------2-----------2-----------2-|
D|---2-----------2-----------2-----------2---------|
A|-0---0---0---0---0---0---0---0---0---0---0---0---|
E|-------------------------------------------------|

e|-------------------------------------------------|
B|-------1-----------1-----------1-----------1-----|
G|-----------2-----------2-----------2-------0---0-|
D|---2-----------2-----------2-----------2---------|
A|-0---0---0---0---0---0---0---0---0---0---0---0---|
E|-------------------------------------------------|

e|-------------------------------------------------|
B|-------1-----------1-----------1-----------1-----|
G|-----------0-----------0-------0---0-------0---0-|
D|---3-----------3-----------3-----------0---------|
A|-------------------------------------------------|
E|-1---1---1---1---1---1---1---1---1---3---3---3---|

e|-------------------------------------------------|
B|-------1-----------1-----------1-----------1-----|
G|-----------2-----------2-----------2-----------2-|
D|---2-----------2-----------2-----------2---------|
A|-0---0---0---0---0---0---0---0---0---0---0---0---|
E|-------------------------------------------------|


[Verse 2]

e|-------------------------------------------------|
B|-------1-----------1-----------1-----------1-----|
G|-----------2-----------2-----------2-------0---0-|
D|---2-----------2-----------2-----------2---------|
A|-0---0---0---0---0---0---0---0---0---0---0---0---|
E|-------------------------------------------------|
                                 It’s not   the
e|-------------------------------------------------|
B|-------1-----------1-----------1-----------1-----|
G|-----------0-----------0-------0---0-------0---0-|
D|---3-----------3-----------3-----------0---------|
A|-------------------------------------------------|
E|-1---1---1---1---1---1---1---1---1---3---3---3---|
      same, ...
e|-------------------------------------------------|
B|-------1-----------1-----------1-----------1-----|
G|-----------2-----------2-----------2-----------2-|
D|---2-----------2-----------2-----------2---------|
A|-0---0---0---0---0---0---0---0---0---0---0---0---|
E|-------------------------------------------------|

e|-------------------------------------------------|
B|-------1-----------1-----------1-----------1-----|
G|-----------2-----------2-----------2-------0---0-|
D|---2-----------2-----------2-----------2---------|
A|-0---0---0---0---0---0---0---0---0---0---0---0---|
E|-------------------------------------------------|

e|-------------------------------------------------|
B|-------1-----------1-----------1-----------1-----|
G|-----------0-----------0-------0---0-------0---0-|
D|---3-----------3-----------3-----------0---------|
A|-------------------------------------------------|
E|-1---1---1---1---1---1---1---1---1---3---3---3---|

e|-------------------------------------------------|
B|-------1-----------1-----------1-----------1-----|
G|-----------0-----------0-------0---0-------0---0-|
D|---3-----------3-----------3-----------0---------|
A|-------------------------------------------------|
E|-1---1---1---1---1---1---1---1---1---3---3---3---|

e|-------------------------------------------------|
B|-------1-----------1-----------1-----------1-----|
G|-----------2-----------2-----------2-----------2-|
D|---2-----------2-----------2-----------2---------|
A|-0---0---0---0---0---0---0---0---0---0---0---0---|
E|-------------------------------------------------|

e|-------------------------------------------------|
B|-------1-----------1-----------1-----------1-----|
G|-----------2-----------2-------2---2-------0---0-|
D|---2-----------2-----------2-----------0---------|
A|-0---0---0---0---0---0---0---0---0---------------|
E|-------------------------------------3---3---3---|


[Chorus 1]

e|-------------------------------------------------|
B|-------1-----------1-----------1-----------1-----|
G|-----------0-------0---0-------0---0-------0---0-| x7
D|---3-----------3-----------2-----------0---------|
A|-------------------------0---0---0---------------|
E|-1---1---1---1---1---1---------------3---3---3---|


e|-------------------------------------|
B|-------1-----------1-----------1-----|
G|-----------0-----------0-------0---0-|
D|---3-----------3-----------3---------|
A|-------------------------------------|
E|-1---1---1---1---1---1---1---1---1---|

e|-------------------------------------------------|
B|-------1-----------1-----------1-----------1-----|
G|-----------2-----------2-----------2-------0---0-|
D|---2-----------2-----------2-----------2---------|
A|-0---0---0---0---0---0---0---0---0---0---0---0---|
E|-------------------------------------------------|

e|-------------------------------------------------|
B|-------1-----------1-----------1-----------1-----|
G|-----------2-----------2-------2---2-------0---0-|
D|---2-----------2-----------2-----------0---------|
A|-0---0---0---0---0---0---0---0---0---------------|
E|-------------------------------------3---3---3---|

e|-------------------------------------------------|
B|-------1-----------1-----------1-----------1-----|
G|-----------2-----------2-----------2-------0---0-|
D|---2-----------2-----------2-----------2---------|
A|-0---0---0---0---0---0---0---0---0---0---0---0---|
E|-------------------------------------------------|

e|-------------------------------------------------|
B|-------1-----------1-----------1-----------1-----|
G|-----------0-----------0-------0---0-------0---0-|
D|---3-----------3-----------3-----------0---------|
A|-------------------------------------------------|
E|-1---1---1---1---1---1---1---1---1---3---3---3---|


[Verse 3]

e|-------------------------------------------------|
B|-------1-----------1-----------1-----------1-----|
G|-----------2-----------2-----------2-------0---0-|
D|---2-----------2-----------2-----------2---------|
A|-0---0---0---0---0---0---0---0---0---0---0---0---|
E|-------------------------------------------------|
                                      Distant  
e|-------------------------------------------------|
B|-------1-----------1-----------1-----------1-----|
G|-----------0-----------0-------0---0-------0---0-|
D|---3-----------3-----------3-----------0---------|
A|-------------------------------------------------|
E|-1---1---1---1---1---1---1---1---1---3---3---3---|
    screams, ...
e|-------------------------------------------------|
B|-------1-----------1-----------1-----------1-----|
G|-----------2-----------2-----------2-----------2-|
D|---2-----------2-----------2-----------2---------|
A|-0---0---0---0---0---0---0---0---0---0---0---0---|
E|-------------------------------------------------|

e|-------------------------------------------------|
B|-------1-----------1-----------1-----------1-----|
G|-----------2-----------2-----------2-------0---0-|
D|---2-----------2-----------2-----------2---------|
A|-0---0---0---0---0---0---0---0---0---0---0---0---|
E|-------------------------------------------------|

e|-------------------------------------------------|
B|-------1-----------1-----------1-----------1-----|
G|-----------0-----------0-------0---0-------0---0-|
D|---3-----------3-----------3-----------0---------|
A|-------------------------------------------------|
E|-1---1---1---1---1---1---1---1---1---3---3---3---|

e|-------------------------------------------------|
B|-------1-----------1-----------1-----------1-----|
G|-----------2-----------2-----------2-----------2-|
D|---2-----------2-----------2-----------2---------|
A|-0---0---0---0---0---0---0---0---0---0---0---0---|
E|-------------------------------------------------|


[Verse 4]

e|-------------------------------------------------|
B|-------1-----------1-----------1-----------1-----|
G|-------2---2-------2---2-------2---2-------0---0-|
D|---2-----------2-----------2-----------2---------|
A|-0---0---0---0---0---0---0---0---0---0---0---0---|
E|-------------------------------------------------|

e|-------------------------------------------------|
B|-------1-----------1-----------1-----------1-----|
G|-------0---0-------0---0-------0---0-------0---0-|
D|---3-----------3-----------3-----------3---------|
A|-------------------------------------------------|
E|-1---1---1---1---1---1---1---1---1---1---1---1---|

e|-------------------------------------------------|
B|-------1-----------1-----------1-----------1-----|
G|-------2---2-------2---2-------2---2-------2---2-|
D|---2-----------2-----------2-----------2---------|
A|-0---0---0---0---0---0---0---0---0---0---0---0---|
E|-------------------------------------------------|

e|-------------------------------------------------|
B|-------1-----------1-----------1-----------1-----|
G|-------2---2-------2---2-------2---2-------0---0-|
D|---2-----------2-----------2-----------2---------|
A|-0---0---0---0---0---0---0---0---0---0---0---0---|
E|-------------------------------------------------|

e|-------------------------------------------------|
B|-------1-----------1-----------1-----------1-----|
G|-----------0-----------0-------0---0-------0---0-|
D|---3-----------3-----------3-----------0---------|
A|-------------------------------------------------|
E|-1---1---1---1---1---1---1---1---1---3---3---3---|

e|-------------------------------------------------|
B|-------1-----------1-----------1-----------1-----|
G|-----------2-----------2-------2---2-------0---0-|
D|---2-----------2-----------2-----------0---------|
A|-0---0---0---0---0---0---0---0---0---------------|
E|-------------------------------------3---3---3---|

e|-------------------------------------------------|
B|-------1-----------1-----------1-----------1-----|
G|-----------0-----------0-------0---0-------0---0-|
D|---3-----------3-----------3-----------0---------|
A|-------------------------------------------------|
E|-1---1---1---1---1---1---1---1---1---3---3---3---|

e|-------------------------------------------------|
B|-------1-----------1-----------1-----------1-----|
G|-----------2-----------2-------2---2-------0---0-|
D|---2-----------2-----------2-----------0---------|
A|-0---0---0---0---0---0---0---0---0---------------|
E|-------------------------------------3---3---3---|


[Chorus 2]

e|-------------------------------------------------|
B|-------1-----------1-----------1-----------1-----|
G|-------0---0-------0---0-------0---0-------0---0-| x3 (louder)
D|---3-----------3-----------2-----------0---------|
A|-------------------------0---0---0---------------|
E|-1---1---1---1---1---1---------------3---3---3---|

e|-------------------------------------------------|
B|-------1-----------1-----------1-----------1-----|
G|-----------0-------0---0-------0---0-------0---0-| x6
D|---3-----------3-----------2-----------0---------|
A|-------------------------0---0---0---------------|
E|-1---1---1---1---1---1---------------3---3---3---|


e|-------------------------------------------------|
B|-------3-----------3-----------3-----------3-----|
G|-------0-----------------------0-----------------|
D|---0-------0---0-------0---0-------0---0-------0-|
A|-------------------------------------------------|
E|-3---3---3---3---3---3---3---3---3---3---3---3---|

e|-------------------------------------------------|
B|-------3-----------3-----------3-----------3-----|
G|-------0-----------------------0-----------0---0-|
D|---0-------0---0-------0---0-------0---0---------|
A|---------------------------------------------3---|
E|-3---3---3---3---3---3---3---3---3---3---3-------|


[Instrumental]

e|-------------------------------------------------|
B|-------1-----------1-----------1-----------1-----|
G|------(2)--2------(2)--2------(2)--2------(2)--2-|
D|---2-----------2-----------2-----------2---------|
A|-0---0---0---0---0---0---0---0---0---0---0---0---|
E|-------------------------------------------------|

e|-------------------------------------------------|
B|-------1-----------1-----------1-----------1-----|
G|------(2)--2------(2)--2------(2)--2------(0)--0-|
D|---2-----------2-----------2-----------2---------|
A|-0---0---0---0---0---0---0---0---0---0---0---0---|
E|-------------------------------------------------|

e|-------------------------------------------------|
B|-------1-----------1-----------1-----------1-----|
G|------(0)--0------(0)--0------(0)--0------(0)--0-|
D|---0-----------0-----------0-----------0---------|
A|---------------------------------3---------------|
E|-3---3---3---3---3---3---3---3-------3---3---3---|

e|-------------------------------------------------|
B|-------1-----------1-----------1-----------1-----|
G|------(0)--0------(0)--0------(0)--0------(0)--0-|
D|---0-----------0-----------0-----------0---------|
A|---------3-----------------------------------3---|
E|-3---3-------3---3---3---3---3---3---3---3-------|

e|-------------------------------------------------|
B|-------1-----------1-----------1-----------1-----|
G|------(2)--2------(2)--2------(2)--2------(2)--2-|
D|---2-----------2-----------2-----------2---------|
A|-0---0---0---0---0---0---0---0---0---0---0---0---|
E|-------------------------------------------------|

e|-------------------------------------------------|
B|-------1-----------1-----------1-----------1-----|
G|------(2)--2------(2)--2------(2)--2------(0)--0-|
D|---2-----------2-----------2-----------2---------|
A|-0---0---0---0---0---0---0---0---0---0---0---0---|
E|-------------------------------------------------|

e|-------------------------------------------------|
B|-------1-----------1-----------1-----------1-----|
G|------(0)--0------(0)--0------(0)--0------(0)--0-|
D|---0-----------0-----------0-----------0---------|
A|-------------------------------------------------|
E|-3---3---3---3---3---3---3---3---3---3---3---3---|

e|-------------------------------------------------|
B|-------1-----------1-----------1---1-------1---1-|
G|------(0)--0------(0)--0-------0---0-------0---0-|
D|---0-----------0-----------0-----------0---------|
A|-------------------------------------------------|
E|-3---3---3---3---3---3---3---3---3---3---3---3---|

e|-------------------------------------------------|
B|-------1---1-------1---1-------1-----------1---1-|
G|-------0---0-------0---0-----------0-------0---0-|
D|---3-----------3-----------3-----------3---------|
A|-------------------------------------------------|
E|-1---1---1---1---1---1---1---1---1---1---1---1---|

e|-------------------------------------------------|
B|-------1-----------1-----------1-----------1---1-|
G|-----------2-----------2-----------2-------0---0-|
D|---2-----------2-----------2-----------2---------|
A|-0---0---0---0---0---0---0---0---0---0---0---0---|
E|-------------------------------------------------|

e|-------------------------------------------------|
B|-------1---1-------1-----------1-----------1---1-|
G|-------0---0-------0---0-------0---0-------0---0-|
D|---3-----------3-----------3-----------3---------|
A|-------------------------------------------------|
E|-1---1---1---1---1---1---1---1---1---1---1---1---|

e|-------------------------------------------------|
B|-------1-----------1-----------1-----------1-----|
G|-----------2-----------2-----------2-----------0-|
D|---2-----------2-----------2-----------2---------|
A|-0---0---0---0---0---0---0---0---0---0---0---0---|
E|-------------------------------------------------|


[Verse 5]

e|-------------------------------------------------|
B|-------1-----------1-----------1-----------1-----|
G|-----------0-----------0-----------0-------0---0-|
D|---3-----------3-----------3-----------3---------|
A|-------------------------------------------------|\
E|-1---1---1---1---1---1---1---1---1---1---1---1---| \
                                     Nights are       x3
e|-------------------------------------------------| /
B|-------1-----------1-----------1-----------1-----|/
G|-----------2-----------2-----------2-------0---0-|
D|---2-----------2-----------2-----------2---------|
A|-0---0---0---0---0---0---0---0---0---0---0---0---|
E|-------------------------------------------------|
     longer                                 now...


[Verse 6]

e|-------------------------------------------------|
B|-------1-----------1-----------1-----------1-----|
G|-----------0-----------0-----------0-------0---0-|
D|---3-----------3-----------3-----------3---------|
A|-------------------------------------------------|\
E|-1---1---1---1---1---1---1---1---1---1---1---1---| \
                                     I    have ...    x3
e|-------------------------------------------------| /
B|-------1-----------1-----------1-----------1-----|/
G|-----------2-----------2-----------2-------0---0-|
D|---2-----------2-----------2-----------2---------|
A|-0---0---0---0---0---0---0---0---0---0---0---0---|
E|-------------------------------------------------|
     
e|-------------------------------------------------|
B|-------1-----------1-----------1-----------1-----|
G|-----------0-----------0-----------0-------0---0-|
D|---3-----------3-----------3-----------3---------|
A|-------------------------------------------------|
E|-1---1---1---1---1---1---1---1---1---1---1---1---|

e|-------------------------------------------------|
B|-------1-----------1-----------1-----------1-----|
G|-----------2-----------2-----------2-----------2-|
D|---2-----------2-----------2-----------2---------|
A|-0---0---0---0---0---0---0---0---0---0---0---0---|
E|-------------------------------------------------|

                               |------louder-------|
e|-------------------------------------------------|
B|-------1-----------1-----------1-----------1-----|
G|-----------2-----------2-----------2-------2---2-|
D|---2-----------2-----------2-----------2---------|
A|-0---0---0---0---0---0---0---0---0---0---0---0---|
E|-------------------------------------------------|


[Chorus 3]

   v     v ^ v v         ^ v     v ^ v v   v   v
e|-x-----x-x-x-x---------x-x-----x-x-x-x---x---x---|
B|-1-----1-1-1-1---------1-1-----1-1-1-1---0---0---|
G|-2-----2-2-2-2---------2-2-----2-2-2-2---0---0---|
D|-3-----3-3-3-3---------3-3-----3-3-3-3---0---0---|
A|-3-----3-3-3-3---------3-3-----3-3-3-3---x---x---|
E|-1-----1-1-1-1---------1-1-----1-1-1-1---3---3---|
   v     v ^ v v     v ^ v v     v ^ v v   v   v
e|-x-----x-x-x-x-----x-x-x-x-----x-x-x-x---x---x---|
B|-1-----1-1-1-1-----1-1-1-1-----1-1-1-1---0---0---|
G|-2-----2-2-2-2-----2-2-2-2-----2-2-2-2---0---0---|
D|-2-----2-2-2-2-----2-2-2-2-----2-2-2-2---0---0---|
A|-0-----0-0-0-0-----0-0-0-0-----0-0-0-0---x---x---|
E|-----------------------------------------3---3---|
   v     v ^ v v     v ^ v v     v ^ v v   v   v
e|-x-----x-x-x-x-----x-x-x-x-----x-x-x-x---x---x---|
B|-1-----1-1-1-1-----1-1-1-1-----1-1-1-1---0---0---|
G|-2-----2-2-2-2-----2-2-2-2-----2-2-2-2---0---0---|
D|-3-----3-3-3-3-----3-3-3-3-----3-3-3-3---0---0---|
A|-3-----3-3-3-3-----3-3-3-3-----3-3-3-3---x---x---|
E|-1-----1-1-1-1-----1-1-1-1-----1-1-1-1---3---3---|
   v
e|-x-----------------------|
B|-1-----------------------|
G|-2-----------------------|
D|-2-----------------------|
A|-0-----------------------|
E|-------------------------|


[Outro]

e|-------------------------|
B|-------1-----------1-----|
G|-----------2-----------0-|
D|---2-----------2---------|
A|-0---0---0---0---0---0---|
E|-------------------------|

e|-------------------------------------------------|
B|-------1-----------1-----------1-----------1-----|
G|-----------0-----------0-----------0-------0---0-|
D|---3-----------3-----------3-----------3---------|
A|-------------------------------------------------|
E|-1---1---1---1---1---1---1---1---1---1---1---1---|

e|-------------------------------0-----------------|
B|-------1-----------3-------------------3p1-1-----|
G|-----------2-----------2-----------2-----------0-|
D|---2-----------2-----------2---------------------|
A|-0---0---0---0---0---0---0---0---0---0---0---0---|
E|-------------------------------------------------|

e|-------------------------------------------------|
B|-------1-----------------------1-----------------|
G|-------------------0-----------------------0-----|
D|---3-------3---3-------3---3-------3---3---3---3-|
A|-------------------------------------------------|
E|-1---1---1---1---1---1---1---1---1---1---1---1---|

e|-------------------------------0-----------------|
B|-------1-----------3-------------------3---3p1---|
G|-----------2-----------2-----------2-----------0-|
D|---2-----------2-----------2---------------------|
A|-0---0---0---0---0---0---0---0---0---0---0---0---|
E|-------------------------------------------------|

e|-------------------------------------------------|
B|-------------------------------------------------|
G|-------0-----------0-----------0-----------0-----|
D|---3-------3---3-------3---3-------3---3-------3-|
A|-------------------------------------------------|
E|-1---1---1---1---1---1---1---1---1---1---1---1---|

e|---------------------------3---3p1p0-------------|
B|-------1-----------1-------------------3---3p1---|
G|-----------2-----------2-----------------------0-|
D|---2-----------2---------------------------------|
A|-0---0---0---0---0---0---0---0---0---0---0---0---|
E|-------------------------------------------------|

e|-------------------------------------------------|
B|-------------------1-----------1-----------1-----|
G|-------0---------------0-----------0-----------0-|
D|---3-------3---3-----------3-----------3---------|
A|-------------------------------------------------|
E|-1---1---1---1---1---1---1---1---1---1---1---1---|
                           
e|-------------------------------------------------|
B|-------1-----------1-----------1-----------1-----|
G|-----------2-----------2-----------2-----------2-|
D|---2-----------2-----------2-----------2---------|
A|-0---0---0---0---0---0---0---0---0---0---0---0---|
E|-------------------------------------------------|

 |--fade away
e|-------------------------------------------------|
B|-------1-----------1-----------------------------|
G|-----------2-----------2-------------------------|
D|---2-----------2-----------2---------------------|
A|-0---0---0---0---0---0---0---0-------------------|
E|-------------------------------------------------|

************************************

| h   hammer-on
| p   pull-off
| x   mute note
| v   strum down
| ^   strum up

************************************

[Verse 1]
A shot to the veins
taste the rush 
I was lost on an escape to love
untraceable

[Verse 2]
It's not the same
not enough
You and me was like a vivid dream
why'd you wake me up?
why'd you wake me up?

[Chorus 1]
You were my coming down
and my solid ground
Paramount
You were my coming down
and my solid ground
Paramount 
Paramount

[Verse 3]
Distant screams
The biggest lie
What are we if never intertwined
Forever undefined

[Verse 4]
Take my hand
Now or not at all
Sow a seed, grow a plant
Watch it spire tall
Ever higher
My love

[Chorus 2]
You were my coming down
and my solid ground
Paramount

[...]

[Verse 5]
Nights are longer now
And I am, I am stronger 
Without you
Without you

[Verse 6]
I have come around
Life is ocean, we were just travelers
In the bayou
In the bayou
That we outgrew

[Chorus 3]
In the bayou
In the bayou
Oooooh

[Outro]




            
            
Suggest correction
Creating personal tab
Creating personal tab
You can edit any tab online and save it as your Personal.

You can edit, replace or remove any tab part or add personal notes – all changes will be seen only by you.

Personal tabs can be accessed anytime from any device, even offline.
Learn more »
Give kudos to tab author, rate the tab!
1 2 3 4 5
comments
print report bad tab
guest
You may want to rate the tab now too:
select rating
Wanna post a correction for this tab? Suggest correction