Oops, an error
Loading. Please wait.

Translucent Amber tab

223 views 1 this week
no commentswrite comment
1 2 3 4 5
3 more votes to show rating
add to favorites
×
Save as Personal and add changes to this tab that will be seen only by you. Learn more ›
×
You can save this tab as Personal to edit and correct it or add notes. All changes will be seen only by you. Learn more »
launch autoscroll
font size
0
reset
how to read this tab
guitar tuner
edit
Autoscroll
slow
fast
+/-
esc
set tempo
stop
-------------------------------------------------------------------------------
                   Mountains of the Moon – Translucent Amber
-------------------------------------------------------------------------------
Tabbed by: Stefan Premovic

Song: https://www.youtube.com/watch?v=7ComjU8qBuM

Tuning: Half-step down, Capo on 4th fret over strings 1-5, low E string is open.
        So we get – D#CFA#DG tuning.

Song is so good, that I had to write the tab as well. This is "Live from a rock" version, 
which is tuned half-step lower than the studio version. Please note that notes played on
first 5 strings count from the capo(so, 3 on 5th string is actually on 7th fret), but notes 
on low E string(6th string) count normally, from the guitar nut. 
So, everything is within the grasp of the hand.


Intro:

G |-------------------------------------------------|
D |-------------------------------------------------|
A#|-------0---0-------0---0-------0---0-------0---0-|
F |-------------------------------------------------|
C |---3-----------3-----------3-----------3---------|
D#|-0---0---0---0---0---0---0---0---0---0---0---0---|

G |-------------------------------------------------|
D |-------------------------------------------------|
A#|-------0---0-------0---0-------0---0-------------| 
F |---------------------------------------3---2---0-|
C |---3-----------3-----------3---------------------|
D#|-0---0---0---0---0---0---0---0---0---0---0---0---|

G |-------------------------------------------------|
D |-------1-----------1-----------1-----------------|
A#|-------0-----------0-----------0-----------------| x3
F |---------------------------------------3---2---0-|
C |---3-------3---3-------3---3-------3-------------|
D#|-5---5---5---5---5---5---0---0---0---0---0---0---|

G |-------------------------------------------------|
D |-------3-----------3-----------3-----------3-----|
A#|-------0-----------0-----------0-----------0-----|
F |---0-------0---0-------0---0-------0---0-------0-|
C |-------------------------------------------------|
D#|-7---7---7---7---7---7---7---7---7---7---7---7---|

G |-------------------------------------------------|
D |-------3-----------3-----------3-------1---1-----|
A#|-------0-----------0-----------0-------0---0-----|
F |-------------------------------------------------|
C |---3-------3---3-------3---3-------3-----------3-|
D#|-5---5---5---5---5---5---5---5---5---5-----------|

G |-------------------------------------------------|
D |-------1-----------1-----------1-----------1-----|
A#|-------0-----------0-----------0-----------0-----| x2
F |-------------------------------------------------|
C |---3-------3---3-------3---3-------3---3-------3-|
D#|-0---0---0---0---0---0---0---0---0---0---0---0---|


Verse 1:

G |-------------------------------------------------|
D |-------1-----------1-----------1-----------1-----|
A#|-------0-----------0-----------0-----------0-----| x3
F |-------------------------------------------------|
C |---3-------3---3-------3---3-------3---3-------3-|
D#|-5---5---5---5---5---5---0---0---0---0---0---0---|

G |-------------------------------------------------|
D |-------1-----------1---1-------1-----------1-----|
A#|-------0-----------0---0-------0-----------0-----|
F |---------------------------2-------2---0-------0-|
C |---3-------3---3---------0---0---0---------------|
D#|-5---5---5---5---5---5---------------7---7---7---|

G |-------------------------------------------------|
D |-------1-----------1-----------1-----------1-----|
A#|-------0-----------0-----------0-----------0-----|
F |-------------------------------------------------|
C |---3-------3---3-------3---3-------3---3-------3-|
D#|-5---5---5---5---5---5---5---5---5---5---5---5---|

G |-------------------------------------------------|
D |-------1-----------1-----------1-----------------|
A#|-------0-----------0-----------0-----------------|
F |-----------------------------------3---3---2---0-|
C |---3-------3---3-------3---3---------------------|
D#|-0---0---0---0---0---0---0---0---0---0---0---0---|


Verse 2:

G |-------------------------------------------------|
D |-------1-----------1-----------1-----------1-----|
A#|-------0-----------0-----------0-----------0-----| x3
F |-------------------------------------------------|
C |---3-------3---3-------3---3-------3---3-------3-|
D#|-5---5---5---5---5---5---0---0---0---0---0---0---|

G |-------------------------------------------------|
D |-------1-----------1---1-------1-----------1-----|
A#|-------0-----------0---0-------0-----------0-----|
F |---------------------------2-------2---0-------0-|
C |---3-------3---3---------0---0---0---------------|
D#|-5---5---5---5---5---5---------------7---7---7---|

G |-------------------------------------------------|
D |-------1-----------1-----------1-----------1-----|
A#|-------0-----------0-----------0-----------0-----|
F |-------------------------------------------------|
C |---3-------3---3-------3---3-------3---3-------3-|
D#|-5---5---5---5---5---5---5---5---5---5---5---5---|

G |-------------------------------------------------|
D |-------1-----------1-----------1-----------1-----|
A#|-------0-----------0-----------0-----------0-----|
F |-------------------------------------------------|
C |---3-------3---3-------3---3-------3---3-------3-|
D#|-0---0---0---0---0---0---0---0---0---0---0---0---|


Chorus 1:

G |-------------------------------------------------|
D |-------3-----------3-----------3p1---------1-----|
A#|-------0-----------0-----------0-----------0-----| x3
F |---0-------0---0-------0-------------------------|
C |---------------------------3-------3---3-------3-|
D#|-7---7---7---7---7---7---5---5---5---5---5---5---|

G |-------------------------------------------------|
D |-------1-----------1-----------1-----------1-----|
A#|-------0-----------0-----------0-----------0-----|
F |-------------------------------------------------|
C |---3-------3---3-------3---3-------3---3-------3-|
D#|-5---5---5---5---5---5---0---0---0---0---0---0---|

G |-------------------------|
D |-------1-----------1-----|
A#|-------0-----------0-----|
F |-------------------------|
C |---3-------3---3-------3-|
D#|-0---0---0---0---0---0---|



G |-------------------------------------------------|
D |-------1-----------1-----------1-----------1-----|
A#|-------0-----------0-----------0-----------0-----| x3
F |-------------------------------------------------|
C |---3-------3---3-------3---3-------3---3-------3-|
D#|-5---5---5---5---5---5---0---0---0---0---0---0---|

G |-------------------------------------------------|
D |-------3-----------3-----------3-----------3-----|
A#|-------0-----------0-----------0-----------0-----|
F |---0-------0---0-------0---0-------0---0-------0-|
C |-------------------------------------------------|
D#|-7---7---7---7---7---7---7---7---7---7---7---7---|

G |-------------------------------------------------|
D |-------3-----------3-----------3-------1---1-----|
A#|-------0-----------0-----------0-------0---0-----|
F |-------------------------------------------------|
C |---3-------3---3-------3---3-------3-----------3-|
D#|-5---5---5---5---5---5---5---5---5---5-----------|

G |-------------------------------------------------|
D |-------1-----------1-----------1-----------1-----|
A#|-------0-----------0-----------0-----------0-----| x2
F |-------------------------------------------------|
C |---3-------3---3-------3---3-------3---3-------3-|
D#|-0---0---0---0---0---0---0---0---0---0---0---0---|


Verse 3:

G |-------------------------------------------------|
D |-------------------------------------------------|
A#|-------0-----------0-----------------------------|
F |------------------(3)----------2-----------2h3---|
C |---3-------3---3-------3---3-------3---3-------3-|
D#|-5---5---5---5---5---5---0---0---0---0---0---0---|

G |-------------------------------------------------|
D |-------------------------------------------------|
A#|-------0-----------0-----------------------------|
F |------(3)----------------------2-----------2h3---|
C |---3-------3---3-------3---3-------3---3--(3)--3-|
D#|-5---5---5---5---5---5---0---0---0---0---0---0---|

G |-------------------------------------------------|
D |-------------------------------------------------|
A#|-------0-----------0-----------------------------|
F |------------------(3)----------2-----------2h3---|
C |---3-------3---3-------3---3-------3---3-------3-|
D#|-5---5---5---5---5---5---0---0---0---0---0---0---|

G |-------------------------------3-----------3-----|
D |-------1-----------1---1-------1-----------1-----|
A#|-------0-----------0---0-------------------------|
F |---------------------------2-------2---0-------0-|
C |---3-------3---3---------0---0---0---------------|
D#|-5---5---5---5---5---5---------------7---7---7---|

G |-------3-----------3-----------3-----------3-----|
D |-------1-----------1-----------1-----------1-----|
A#|-------------------------------------------------|
F |-------------------------------------------------|
C |---3-------3---3-------3---3-------3---3-------3-|
D#|-5---5---5---5---5---5---5---5---5---5---5---5---|

G |-------3-----------3-----------3-----------3-----|
D |-------1-----------1-----------1-----------1-----|
A#|-------------------------------------------------|
F |-------------------------------------------------|
C |---3-------3---3-------3---3-------3---3-------3-|
D#|-0---0---0---0---0---0---0---0---0---0---0---0---|


Chorus 2:

G |-------3-----------3-----------3-----------3-----|
D |-------1-----------1-----------1-----------1-----|
A#|-------------------------------------------------| x3
F |---0-------0---0-------0-------------------------|
C |---------------------------3-------3---3-------3-|
D#|-7---7---7---7---7---7---5---5---5---5---5---5---|

G |-------3-----------3-----------3-----------3-----|
D |-------1-----------1-----------1-----------1-----|
A#|-------------------------------------------------|
F |-------------------------------------------------|
C |---3-------3---3-------3---3-------3---3-------3-|
D#|-5---5---5---5---5---5---0---0---0---0---0---0---|

G |-------3-----------3-----|
D |-------1-----------1-----|
A#|-------------------------|
F |-------------------------|
C |---3-------3---3-------3-|
D#|-0---0---0---0---0---0---|



G |-------3-----------3-----------3-----------3-----|
D |-------1-----------1-----------1-----------1-----|
A#|-------------------------------------------------| x3
F |-------------------------------------------------|
C |---3-------3---3-------3---3-------3---3-------3-|
D#|-5---5---5---5---5---5---0---0---0---0---0---0---|

G |-------------------------------------------------|
D |-------3-----------3-----------3-----------3-----|
A#|-------------------------------------------------|
F |---0-------0---0-------0---0-------0---0-------0-|
C |-------------------------------------------------|
D#|-7---7---7---7---7---7---7---7---7---7---7---7---|

G |-------------------------------------------------|
D |-------3-----------3-----------3-----------3-----|
A#|-------------------------------------------------|
F |-------------------------------------------------|
C |---3-------3---3-------3---3-------3---3-------3-|
D#|-5---5---5---5---5---5---5---5---5---5---5---5---|

G |-------------------------------------------------|
D |-------3-----------3-----------3-------1---1---1-|
A#|---------------------------------------0---0---0-|
F |-------------------------------------------------|
C |---3-------3---3-------3---3-------3-------------|
D#|-5---5---5---5---5---5---5---5---5---5-----------|

G |-------------------------------------------------|
D |-------------------------------------------------|
A#|-------------------------------------------------|
F |-------------------------------------------------|
C |-------------------------------------------------|
D#|-0-----------------------------------------------|


************************************

| h   hammer-on
| p   pull-off

************************************

Lyrics:

/Verse 1/
You come
Shrouded for them to see
All of the sun
That you cover beneath
Unrevealed

/Verse 2/
And they walk
past you they don’t stop to think
All in a rush
To find what you could’ve been
Would’ve been

/Chorus 1/
Oh, you are the translucent amber
Unsung and so misunderstood
Yes, you are the translucent amber
In a sea of ceylon cedar wood

Ooooooooooooooh x4

/Verse 3/
In the fog
And their line of sight
Clouded up
We are where the wilderness meets the white
And that’s alright

/Chorus 2/
Oh, you are the translucent amber
Unsung and so misunderstood
Yes, you are the translucent amber
In a sea of ceylon cedar wood

Ooooooooooooooh x4



Suggest correction
Creating personal tab
Creating personal tab
You can edit any tab online and save it as your Personal.

You can edit, replace or remove any tab part or add personal notes – all changes will be seen only by you.

Personal tabs can be accessed anytime from any device, even offline.
Learn more »
Give kudos to tab author, rate the tab!
1 2 3 4 5
comments
print report bad tab
guest
You may want to rate the tab now too:
select rating
Wanna post a correction for this tab? Suggest correction