Oops, an error
Loading. Please wait.

Crimson Carrie Bass Tab

7 views 1 this week
no commentswrite comment
1 2 3 4 5
1 last vote to show rating
add to favorites
launch autoscroll
font size
0
reset
guitar tuner
Autoscroll
slow
fast
+/-
esc
set tempo
stop
Help us to improve Ultimate-Guitar.com Take our survey!
×
Author
Difficulty
novice
                             MOURNING NOISE - CRIMSON CARRIE


Tabbed by: Rottney (reconssuck)
E-mail: reconssuck@hotmail.de

Artist: Mourning Noise
Song: Crimson Carrie
Album: Death Trip Delivery


[Main Riff] x10

G|-----------------|-----------------|-----------------|-----------------|
D|-----------------|-----------------|-----------------|-----------------|
A|-2-2-2-2-2-2-2-2-|-----------------|-----------------|-----------------|
E|-----------------|-1-1-1-1-1-1-1-1-|-0-0-0-0-0-0-0-0-|-0-0-0-0-0-0-0-0-|


[Chorus] x3

G|---------------|---------------|
D|---------------|---------------|
A|-0-0-0-0-0-0-0-|-2-2-2-2-2-2-2-|
E|---------------|---------------|

[Chorus End]

G|---------------|---------------|-----------------|-----------------|
D|---------------|---------------|-----------------|-----------------|
A|---------------|---------------|-----------------|-----------------|
E|-3-3-3-3-3-3-3-|-2-2-2-2-2-2-2-|-3-3-3-3-3-3-3-3-|-5-5-5-5-5-5-5-5-|

[Main Riff] x6

G|-----------------|-----------------|-----------------|-----------------|
D|-----------------|-----------------|-----------------|-----------------|
A|-2-2-2-2-2-2-2-2-|-----------------|-----------------|-----------------|
E|-----------------|-1-1-1-1-1-1-1-1-|-0-0-0-0-0-0-0-0-|-0-0-0-0-0-0-0-0-|

[Chorus] x3

G|---------------|---------------|
D|---------------|---------------|
A|-0-0-0-0-0-0-0-|-2-2-2-2-2-2-2-|
E|---------------|---------------|

[Chorus End]

G|---------------|---------------|-----------------|-----------------|
D|---------------|---------------|-----------------|-----------------|
A|---------------|---------------|-----------------|-----------------|
E|-3-3-3-3-3-3-3-|-2-2-2-2-2-2-2-|-3-3-3-3-3-3-3-3-|-5-5-5-5-5-5-5-5-|


[Main Riff] x4

G|-----------------|-----------------|-----------------|-----------------|
D|-----------------|-----------------|-----------------|-----------------|
A|-2-2-2-2-2-2-2-2-|-----------------|-----------------|-----------------|
E|-----------------|-1-1-1-1-1-1-1-1-|-0-0-0-0-0-0-0-0-|-0-0-0-0-0-0-0-0-|

[End]


G|--------|
D|--------|
A|-2------|
E|--------|

(song breaks apart and quickly fades out)


That's all
Enjoy and Rate
Suggest correction
Give kudos to tab author, rate the tab!
1 2 3 4 5
comments
print report bad tab
guest
You may want to rate the tab now too:
select rating
Wanna post a correction for this tab? Suggest correction