Oops, an error
Loading. Please wait.

Dawn Of The Dead Bass Tab

4 views 1 this week
no commentswrite comment
1 2 3 4 5
3 more votes to show rating
add to favorites
launch autoscroll
font size
0
reset
guitar tuner
Autoscroll
slow
fast
+/-
esc
set tempo
stop
Help us to improve Ultimate-Guitar.com Take our survey!
×
Author
Difficulty
novice
                             MOURNING NOISE - DAWN OF THE DEAD

Tabbed by: Rottney (reconssuck)
E-mail: reconssuck@hotmail.de

Artist: Mourning Noise
Song: Dawn Of The Dead
Album: Death Trip Delivery




[Intro] x8

G|-----------------|---------------|
D|-----------------|---------------|
A|-----------------|---------------|
E|-0-0-0-0-0-0-0-0-|-3-3-3-3-3-3-3-|

[Verse] x3

G|---------------|---------------|---------------|---------------|
D|---------------|---------------|---------------|---------------|
A|-3-3-3-3-3-3-3-|-2-2-2-2-2-2-2-|-3-3-3-3-3-3-3-|-2-2-2-2-2-2-2-|
E|---------------|---------------|---------------|---------------|

[Intro] x6

G|-----------------|---------------|
D|-----------------|---------------|
A|-----------------|---------------|
E|-0-0-0-0-0-0-0-0-|-3-3-3-3-3-3-3-|

[Verse] x3

G|---------------|---------------|---------------|---------------|
D|---------------|---------------|---------------|---------------|
A|-3-3-3-3-3-3-3-|-2-2-2-2-2-2-2-|-3-3-3-3-3-3-3-|-2-2-2-2-2-2-2-|
E|---------------|---------------|---------------|---------------|


[Intro] x6

G|-----------------|---------------|
D|-----------------|---------------|
A|-----------------|---------------|
E|-0-0-0-0-0-0-0-0-|-3-3-3-3-3-3-3-|


[Bridge] x2


G|-----------------|---------------------------|-----------------------------|------------------|
D|-----------------|---------------------------|-----------------------------|------------------|
A|-----------------|-0-0-0-0-0-0-0-0-0-0-0-0-0-|-3-3-3-3-3-3-3-3-3-3-3-3-3-3-|-2-2-2-2-2-2-2-2--|
E|-3-3-3-3-3-3-3-3-|---------------------------|-----------------------------|------------------|


[Intro] x6

G|-----------------|---------------|
D|-----------------|---------------|
A|-----------------|---------------|
E|-0-0-0-0-0-0-0-0-|-3-3-3-3-3-3-3-|


[Verse] x3

G|---------------|---------------|---------------|---------------|
D|---------------|---------------|---------------|---------------|
A|-3-3-3-3-3-3-3-|-2-2-2-2-2-2-2-|-3-3-3-3-3-3-3-|-2-2-2-2-2-2-2-|
E|---------------|---------------|---------------|---------------|

[Intro] x4

G|-----------------|---------------|
D|-----------------|---------------|
A|-----------------|---------------|
E|-0-0-0-0-0-0-0-0-|-3-3-3-3-3-3-3-|

[Bridge] x2

G|-----------------|---------------------------|-----------------------------|------------------|
D|-----------------|---------------------------|-----------------------------|------------------|
A|-----------------|-0-0-0-0-0-0-0-0-0-0-0-0-0-|-3-3-3-3-3-3-3-3-3-3-3-3-3-3-|-2-2-2-2-2-2-2-2--|
E|-3-3-3-3-3-3-3-3-|---------------------------|-----------------------------|------------------|

[End]

G|------|
D|------|
A|------|
E|-0----|





That's all
Enjoy and Rate




Suggest correction
Give kudos to tab author, rate the tab!
1 2 3 4 5
comments
print report bad tab
guest
You may want to rate the tab now too:
select rating
Wanna post a correction for this tab? Suggest correction