Oops, an error
Loading. Please wait.

Death In A White Cloud Bass Tab

1 view 1 this week
no commentswrite comment
1 2 3 4 5
2 more votes to show rating
add to favorites
launch autoscroll
font size
0
reset
guitar tuner
Autoscroll
slow
fast
+/-
esc
set tempo
stop
Help us to improve Ultimate-Guitar.com Take our survey!
×
Author
Difficulty
novice
                             MOURNING NOISE - DEATH IN A WHITE CLOUD


Tabbed by: Rottney (reconssuck)
E-mail: reconssuck@hotmail.de

Artist: Mourning Noise
Song: Death In A White Cloud
Album: Death Trip Delivery





[Intro]

G|----------------------|-----------------------------|
D|----------------------|-----------------------------|
A|-2-2-2-2-2-2-2--3-2-3-|-----------------------------|
E|----------------------|-0-0-0-0-0-0-0-0-0-0-0-0-0-0-|

G|----------------------|-----------------------------|
D|----------------------|-----------------------------|
A|-2-2-2-2-2-2-2--3-2-3-|-2---2---2-2-2-2-2-2-2-2-----|
E|----------------------|-----------------------------|


[Verse] x2


G|----------------------|----------------------|----------------------|------|
D|----------------------|----------------------|----------------------|------|
A|-2-2-2-2-2-2-2--3-2-3-|-2-2-2-2-2-2-2--3-2-3-|-2-2-2-2-2-2-2--3-2-3-|-5--0-|
E|----------------------|----------------------|----------------------|------|


G|----------------------|----------------------|----------------------|------|
D|----------------------|----------------------|----------------------|------|
A|-2-2-2-2-2-2-2--3-2-3-|-2-2-2-2-2-2-2--3-2-3-|-2-2-2-2-2-2-2--3-2-3-|------|
E|----------------------|----------------------|----------------------|-3--2-|


[Chorus]

G|-----------------|-----------------|---------|---------|---------------------|
D|-----------------|-----------------|---------|---------|---------------------|
A|-----------------|-----------------|---------|---------|---------------------|
E|-3-3-3-3-3-3-3-3-|-2-2-2-2-2-2-2-2-|-3-3-3-3-|-0-0-3-3-|-2-2-2-2-2-2-2-2-----|

G|------------------|-----------------|---------|---------|--------------------|
D|------------------|-----------------|---------|---------|--------------------|
A|----------2-2-----|-----------------|---------|---------|--------------------|
E|-3-3-3-3------3-3-|-2-2-2-2-2-2-2-2-|-3-3-3-3-|-0-0-3-3-|-2-2-2-2-2-2-2-2----|


[Verse] 


G|----------------------|----------------------|----------------------|------|
D|----------------------|----------------------|----------------------|------|
A|-2-2-2-2-2-2-2--3-2-3-|-2-2-2-2-2-2-2--3-2-3-|-2-2-2-2-2-2-2--3-2-3-|-5--0-|
E|----------------------|----------------------|----------------------|------|


G|----------------------|----------------------|----------------------|------|
D|----------------------|----------------------|----------------------|------|
A|-2-2-2-2-2-2-2--3-2-3-|-2-2-2-2-2-2-2--3-2-3-|-2-2-2-2-2-2-2--3-2-3-|------|
E|----------------------|----------------------|----------------------|-3--2-|

[Chorus]

G|-----------------|-----------------|---------|---------|---------------------|
D|-----------------|-----------------|---------|---------|---------------------|
A|-----------------|-----------------|---------|---------|---------------------|
E|-3-3-3-3-3-3-3-3-|-2-2-2-2-2-2-2-2-|-3-3-3-3-|-0-0-3-3-|-2-2-2-2-2-2-2-2-----|

G|------------------|-----------------|---------|---------|--------------------|
D|------------------|-----------------|---------|---------|--------------------|
A|----------2-2-----|-----------------|---------|---------|--------------------|
E|-3-3-3-3------3-3-|-2-2-2-2-2-2-2-2-|-3-3-3-3-|-0-0-3-3-|-2-2-2-2-2-2-2-2----|

[Last Chorus]

G|-----------------|-----------------|---------|---------|---------------------|
D|-----------------|-----------------|---------|---------|---------------------|
A|-----------------|-----------------|---------|---------|---------------------|
E|-6-6-6-6-6-6-6-6-|-5-5-5-5-5-5-5-5-|-6-6-6-6-|-3-3-6-6-|-5-5-5-5-5-5-5-5-----|

G|------------------|-----------------|---------|---------|--------------------|
D|------------------|-----------------|---------|---------|--------------------|
A|----------5-5-----|-----------------|---------|---------|--------------------|
E|-6-6-6-6------6-6-|-5-5-5-5-5-5-5-5-|-6-6-6-6-|-3-3-6-6-|-5-5-5-5-5-5-5-5----|


[Outro] x2

G|---------|---------|--------------------|
D|---------|---------|--------------------|
A|---------|---------|--------------------|
E|-6-6-6-6-|-3-3-6-6-|-5-5-5-5-5-5-5-5----|



That's all
Enjoy and Rate
Suggest correction
Give kudos to tab author, rate the tab!
1 2 3 4 5
comments
print report bad tab
guest
You may want to rate the tab now too:
select rating
Wanna post a correction for this tab? Suggest correction