Oops, an error
Loading. Please wait.

Empty Grave Bass Tab

4 views 1 this week
no commentswrite comment
1 2 3 4 5
2 more votes to show rating
add to favorites
launch autoscroll
font size
0
reset
guitar tuner
Autoscroll
slow
fast
+/-
esc
set tempo
stop
Help us to improve Ultimate-Guitar.com Take our survey!
×
Author
Difficulty
novice
                             MOURNING NOISE - EMPTY GRAVE


Tabbed by: Rottney (reconssuck)
E-mail: reconssuck@hotmail.de

Artist: Mourning Noise
Song: Empty Grave
Album: Death Trip Delivery



[Intro]


G|----------|-----------|-----------|-------------|
D|----------|-----------|-----------|-------------|
A|----1-3-1-|---1-3-3-1-|--4-3-1-3--|-4-3-1-3-----|
E|--3-------|-3---------|-----------|-------------|

[Main Riff] x6

G|---------------|-------------------|---------------|---------------|
D|---------------|-------------------|---------------|---------------|
A|---------------|-------------------|-4-4-4-3-3-3-3-|-4-4-4-3-3-3-3-|
E|-3-3-3-3-3-3-3-|-3-3-3-3-3-3-3-3-3-|---------------|---------------|


[Fill]

G|---------------|-----------------|---------------|---------------|
D|---------------|-----------------|---------------|---------------|
A|-3-3-3-3-3-3-3-|-3-3-3-3-3-3-3-3-|-4-4-4-4-4-4-4-|-1-1-1-1-1-1-1-|
E|---------------|-----------------|---------------|---------------|

G|---------------|-----------------|---------------|---------------|
D|---------------|-----------------|---------------|---------------|
A|-3-3-3-3-3-3-3-|-3-3-3-3-3-3-3-3-|-4-4-4-4-4-4-4-|-6-6-6-6-6-6-6-|
E|---------------|-----------------|---------------|---------------|

[Main Riff] x6

G|---------------|-------------------|---------------|---------------|
D|---------------|-------------------|---------------|---------------|
A|---------------|-------------------|-4-4-4-3-3-3-3-|-4-4-4-3-3-3-3-|
E|-3-3-3-3-3-3-3-|-3-3-3-3-3-3-3-3-3-|---------------|---------------|

[Fill]

G|---------------|-----------------|---------------|---------------|
D|---------------|-----------------|---------------|---------------|
A|-3-3-3-3-3-3-3-|-3-3-3-3-3-3-3-3-|-4-4-4-4-4-4-4-|-1-1-1-1-1-1-1-|
E|---------------|-----------------|---------------|---------------|

G|---------------|-----------------|---------------|---------------|
D|---------------|-----------------|---------------|---------------|
A|-3-3-3-3-3-3-3-|-3-3-3-3-3-3-3-3-|-4-4-4-4-4-4-4-|-6-6-6-6-6-6-6-|
E|---------------|-----------------|---------------|---------------|

[Chorus] x4

G|----------|-----------|----------|-------------|
D|----------|-----------|----------|-------------|
A|----1-3-1-|---1-3-3-1-|---0-1-0--|---0-1-1-0---|
E|--3-------|-3---------|-1--------|-1-----------|




That's all
Enjoy and Rate
Suggest correction
Give kudos to tab author, rate the tab!
1 2 3 4 5
comments
print report bad tab
guest
You may want to rate the tab now too:
select rating
Wanna post a correction for this tab? Suggest correction