Oops, an error
Loading. Please wait.

My Demon Eyes Bass Tab

4 views 1 this week
no commentswrite comment
1 2 3 4 5
3 more votes to show rating
add to favorites
launch autoscroll
font size
0
reset
guitar tuner
Autoscroll
slow
fast
+/-
esc
set tempo
stop
Help us to improve Ultimate-Guitar.com Take our survey!
×
Author
Difficulty
novice
                             MOURNING NOISE - MY DEMON EYES


Tabbed by: Rottney (reconssuck)
E-mail: reconssuck@hotmail.de

Artist: Mourning Noise
Song: My Demon Eyes
Album: Death Trip Delivery


[Main Riff] x10

G|---------------|---------------|
D|---------------|---------------|
A|---------------|---------------|
E|-5-5-5-5-5-5-5-|-3-3-3-3-3-3-3-|


[Fill]

G|---------------|---------------|
D|---------------|---------------|
A|---------------|---------------|
E|-1-1-1-1-1-1-1-|-0-0-0-0-0-0-0-|


[Main Riff] x4

G|---------------|---------------|
D|---------------|---------------|
A|---------------|---------------|
E|-5-5-5-5-5-5-5-|-3-3-3-3-3-3-3-|


[Fill]

G|---------------|---------------|
D|---------------|---------------|
A|---------------|---------------|
E|-1-1-1-1-1-1-1-|-0-0-0-0-0-0-0-|


[Chorus] x2

G|---------------|-----------------|---------------|---------------|
D|---------------|-----------------|---------------|---------------|
A|---------------|-----------------|---------------|---------------|
E|-2-2-2-2-2-2-2-|-2-2-2-2-2-2-2-2-|-3-3-3-3-3-3-3-|-3-3-3-3-3-3-3-|

G|---------------|-----------------|---------------|-----------------|
D|---------------|-----------------|---------------|-----------------|
A|-4-4-4-4-4-4-4-|-4-4-4-4-4-4-4-4-|-5-5-5-5-5-5-5-|-5-5-5-5-5-5-5-5-|
E|---------------|-----------------|---------------|-----------------|


[Main Riff] x4

G|---------------|---------------|
D|---------------|---------------|
A|---------------|---------------|
E|-5-5-5-5-5-5-5-|-3-3-3-3-3-3-3-|


[Fill]

G|---------------|---------------|
D|---------------|---------------|
A|---------------|---------------|
E|-1-1-1-1-1-1-1-|-0-0-0-0-0-0-0-|


[Chorus] x4

G|---------------|-----------------|---------------|---------------|
D|---------------|-----------------|---------------|---------------|
A|---------------|-----------------|---------------|---------------|
E|-2-2-2-2-2-2-2-|-2-2-2-2-2-2-2-2-|-3-3-3-3-3-3-3-|-3-3-3-3-3-3-3-|

G|---------------|-----------------|---------------|-----------------|
D|---------------|-----------------|---------------|-----------------|
A|-4-4-4-4-4-4-4-|-4-4-4-4-4-4-4-4-|-5-5-5-5-5-5-5-|-5-5-5-5-5-5-5-5-|
E|---------------|-----------------|---------------|-----------------|


[End]

G|---------|
D|---------|
A|-0-------|
E|---------|




That's all
Enjoy and Rate
Suggest correction
Give kudos to tab author, rate the tab!
1 2 3 4 5
comments
print report bad tab
guest
You may want to rate the tab now too:
select rating
Wanna post a correction for this tab? Suggest correction