Oops, an error
Loading. Please wait.

Im The One bass

28 views 1 this week
no commentswrite comment
1 2 3 4 5
3 more votes to show rating
add to favorites
×
Save as Personal and add changes to this tab that will be seen only by you. Learn more ›
×
You can save this tab as Personal to edit and correct it or add notes. All changes will be seen only by you. Learn more »
launch autoscroll
font size
0
reset
guitar tuner
edit
Autoscroll
slow
fast
+/-
esc
set tempo
stop
Author
Difficulty

G|----------------------------------------------------------------|
D|----------------------------------------------------------------|
A|7-----------7---7-----------7---7-----------7---7-----------7---|
E|----------------------------------------------------------------|

G|----------------------------------------------------------------|
D|----------------------------------------------------------------|
A|7-----------7---7-----------7---7-----------5---4---2-----------|
E|--------------------------------------------------------4---2---|

0:10

G|----------------------------------------------------------------|
D|------------------------------------------------7-----------7---|
A|7-----------7---7-----------7---7-----------7-------------------|
E|----------------------------------------------------------------|

G|----------------------------------------------------------------|
D|9-----------9---9---------------9---7---6---9---7---6-----------|
A|------------------------6---9---------------------------9---8---|
E|----------------------------------------------------------------|

G|----------------------------------------------------------------|
D|------------------------------------------------7-----------7---|
A|7-----------7---7-----------7---7-----------7-------------------|
E|----------------------------------------------------------------|

G|----------------------------------------------------------------|
D|9---------------9---7---6---------------------------------------|
A|----------------------------9---7---7---5---5---4---4---2---2---|
E|----------------------------------------------------------------|

0:28

G|----------------------------------------------------------------|
D|----------------------------------------------------------------|
A|0-----------0---2---2-------2---4---4-------4---6---6-------6---|
E|----------------------------------------------------------------|

G|----------------------------------------------------------------|
D|----------------------------------------------------------------|
A|7---------------7---5---4---2---0-----------0---2---2-------2---|
E|----------------------------------------------------------------|

G|----------------------------------------------------------------|
D|----------------------------------------------------------------|
A|4---4-------4---6---6-------6---7-----------7---7-----------7---|
E|----------------------------------------------------------------|

G|----------------------------------------------------------------|
D|----------------------------------------------------------------|
A|7-----------7---7-----------7---7-----------7---7-----------7---|
E|----------------------------------------------------------------|

G|--------------------------------|
D|--------------------------------|
A|7-----------5---4---2-----------|
E|------------------------4---2---|

0:47

G|----------------------------------------------------------------|
D|------------------------------------------------7-----------7---|
A|7-----------7---7-----------7---7-----------7-------------------|
E|----------------------------------------------------------------|

G|----------------------------------------------------------------|
D|9-----------9---9---------------9---7---6---9---7---6-----------|
A|------------------------6---9---------------------------9---8---|
E|----------------------------------------------------------------|

G|----------------------------------------------------------------|
D|------------------------------------------------7-----------7---|
A|7-----------7---7---------------7-----------7-------------------|
E|----------------------------------------------------------------|

G|----------------------------------------------------------------|
D|9---------------9---7---6---------------------------------------|
A|----------------------------9---7---7---5---5---4---4---2---2---|
E|----------------------------------------------------------------|

1:05

G|----------------------------------------------------------------|
D|----------------------------------------------------------------|
A|0-----------0---2---2-------2---4---4-------4---6---6-------6---|
E|----------------------------------------------------------------|

G|----------------------------------------------------------------|
D|----------------------------------------------------------------|
A|7---------------7---5---4---2---0-----------0---2---2-------2---|
E|----------------------------------------------------------------|

G|----------------------------------------------------------------|
D|----------------------------------------------------------------|
A|4---4-------4---6---6-------6---7-----------7---7-----------7---|
E|----------------------------------------------------------------|

G|----------------------------------------------------------------|
D|----------------------------------------------------------------|
A|7-----------7---7-----------7---7-----------7---7-----------7---|
E|----------------------------------------------------------------|

G|--------------------------------|
D|--------------------------------|
A|7-------7-------7-------7-------|
E|--------------------------------|

1:24

G|----------------------------------------------------------------|
D|----------------------------------------------------------------|
A|5-------5-------5-------5-------5-------5-------5-------5-------|
E|----------------------------------------------------------------|

G|----------------------------------------------------------------|
D|----------------------------------------------------------------|
A|7-------7-------7-------7-------7-------7-------7-------7-------|
E|----------------------------------------------------------------|

G|----------------------------------------------------------------|
D|----------------------------------------------------------------|
A|5-------5-------5-------5-------5-------5-------5-------5-------|
E|----------------------------------------------------------------|

G|----------------------------------------------------------------|
D|----------------------------------------------------------------|
A|----------------------------------------------------------------|
E|7-------7-------7-------7-------7---7---5---5---4---4---2---2---|

1:42

G|----------------------------------------------------------------|
D|------------------------------------------------7-----------7---|
A|7-----------7---7-----------7---7-----------7-------------------|
E|----------------------------------------------------------------|

G|----------------------------------------------------------------|
D|9-----------9---9---------------9---7---6---9---7---6-----------|
A|------------------------6---9---------------------------9---8---|
E|----------------------------------------------------------------|

G|----------------------------------------------------------------|
D|------------------------------------------------7-----------7---|
A|7-----------7---7-----------7---7-----------7-------------------|
E|----------------------------------------------------------------|

G|----------------------------------------------------------------|
D|9---------------9---7---6---------------------------------------|
A|----------------------------9---7---7---5---5---4---4---2---2---|
E|----------------------------------------------------------------|

1:59

G|----------------------------------------------------------------|
D|----------------------------------------------------------------|
A|0-----------0---2---2-------2---4---4-------4---6---6-------6---|
E|----------------------------------------------------------------|

G|----------------------------------------------------------------|
D|----------------------------------------------------------------|
A|7---------------7---5---4---2---0-----------0---2---2-------2---|
E|----------------------------------------------------------------|

G|----------------------------------------------------------------|
D|----------------------------------------------------------------|
A|4---4-------4---6---6-------6---7-----------7---7-----------7---|
E|----------------------------------------------------------------|

G|----------------------------------------------------------------|
D|----------------------------------------------------------------|
A|7-----------7---7-----------7---7-----------7---7-----------7---|
E|----------------------------------------------------------------|

G|----------------------------------------------------------------|
D|----------------------------------------------------------------|
A|7-----------5---4---2-------------------------------------------|
E|------------------------4---2---0-------------------------------|
Suggest correction
Creating personal tab
Creating personal tab
You can edit any tab online and save it as your Personal.

You can edit, replace or remove any tab part or add personal notes – all changes will be seen only by you.

Personal tabs can be accessed anytime from any device, even offline.
Learn more »
Give kudos to tab author, rate the tab!
1 2 3 4 5
comments
print report bad tab
guest
You may want to rate the tab now too:
select rating
Wanna post a correction for this tab? Suggest correction