Oops, an error
Loading. Please wait.

Hold Back Tab

4 views 1 this week
no commentswrite comment
1 2 3 4 5
3 more votes to show rating
add to favorites
launch autoscroll
font size
0
reset
how to read this tab
guitar tuner
Autoscroll
slow
fast
+/-
esc
set tempo
stop
Help us to improve Ultimate-Guitar.com Take our survey!
×
Author
Difficulty
intermediate
[Intro]

E|-----------------------------------------------------------------|
B|-----------------------------------------------------------------|
G|-----------------------------------------------------------------|
D|--9-9--10-9---2-2-2-2--9---9-9-9-9-9-9-9-9-9-9-9-9---------------|
A|--7-7--8--7---2-2-2-2--7---7-7-7-7-7-7-7-7-7-7-7-7---------------|
E|--------------0-0-0-0--------------------------------------------|
                . . . .        . . . . . . . . . . .

[Verse]

E|-----------------------------------------------|    
B|-----------------------------------------------|    
G|-----------------------------------------------|    
D|--9-9-9-9-9--7-7-7--10-10-10--3-3-3-3-3-3-3-3--| x4 
A|--7-7-7-7-7--5-5-5--8--8--8---3-3-3-3-3-3-3-3--|    
E|------------------------------1-1-1-1-1-1-1-1--|    

E|-------------|
B|-------------|
G|-------------|
D|--9----------|
A|--7----------|
E|-------------|

E|-----------------------------------------------|    
B|-----------------------------------------------|    
G|-----------------------------------------------|    
D|--9-9-9-9-9--7-7-7--10-10-10--3-3-3-3-3-3-3-3--| x4 
A|--7-7-7-7-7--5-5-5--8--8--8---3-3-3-3-3-3-3-3--|    
E|------------------------------1-1-1-1-1-1-1-1--|   

E|-------------|
B|-------------|
G|-------------|
D|--9----------|
A|--7----------|
E|-------------|


[Chorus]

E|-----------------------------------------------------------------|
B|-----------------------------------------------------------------|
G|-----------------------------------------------------------------|
D|--9-9-9-9-9--10--9--3-3--3--3-3--3-------------------------------| x4
A|--7-7-7-7-7--8---7--3-3--3--3-3--3-------------------------------|
E|--------------------1-1--1--1-1--1-------------------------------|
                      . .  .  . .  .

E|-----------------------------------------------------------------|
B|-----------------------------------------------------------------|
G|-----------------------------------------------------------------|
D|--9--10-10-10--7---9-9-9--5-5-5--7-7-7--9--9--9--9---------------|
A|--7--8--8--8---5---7-7-7--3-3-3--5-5-5--7--7--7--7---------------|
E|-----------------------------------------------------------------|


[Verse]

E|-----------------------------------------------|    
B|-----------------------------------------------|    
G|-----------------------------------------------|    
D|--9-9-9-9-9--7-7-7--10-10-10--3-3-3-3-3-3-3-3--| x4 
A|--7-7-7-7-7--5-5-5--8--8--8---3-3-3-3-3-3-3-3--|    
E|------------------------------1-1-1-1-1-1-1-1--|    

E|-------------|
B|-------------|
G|-------------|
D|--9----------|
A|--7----------|
E|-------------|

E|-----------------------------------------------|    
B|-----------------------------------------------|    
G|-----------------------------------------------|    
D|--9-9-9-9-9--7-7-7--10-10-10--3-3-3-3-3-3-3-3--| x4 
A|--7-7-7-7-7--5-5-5--8--8--8---3-3-3-3-3-3-3-3--|    
E|------------------------------1-1-1-1-1-1-1-1--|   

E|-------------|
B|-------------|
G|-------------|
D|--9----------|
A|--7----------|
E|-------------|


[Outro]

E|-----------------------------------------------------------------|
B|-----------------------------------------------------------------|
G|-----------------------------------------------------------------|
D|--9--10-10-10--7---9-9-9--5-5-5--7-7-7---3---9-------------------|
A|--7--8--8--8---5---7-7-7--3-3-3--5-5-5---3---7-------------------| 
E|-----------------------------------------1-----------------------|
Suggest correction
Give kudos to tab author, rate the tab!
1 2 3 4 5
comments
print report bad tab
guest
You may want to rate the tab now too:
select rating
Wanna post a correction for this tab? Suggest correction