Oops, an error
Loading. Please wait.

Keep Your Head Above tab

version 1
version 1

Whole song

1,034 views 6 this week
no commentswrite comment
1 2 3 4 5
x 5
add to favorites
×
Save as Personal and add changes to this tab that will be seen only by you. Learn more ›
×
You can save this tab as Personal to edit and correct it or add notes. All changes will be seen only by you. Learn more »
launch autoscroll
font size
0
reset
how to read this tab
guitar tuner
edit
Autoscroll
slow
fast
+/-
esc
set tempo
stop
Author
Difficulty
From this video - http://www.youtube.com/watch?v=ug9DHxwlC9E
It's all pretty easy once you get the pattern down.
Standard tuning


E|-----------------------------------------------------------------------|
B|-----------------------------------------------------------------------|
G|---0-------0-------0-------0-------0-------0-------0-------0-----------|
D|-------0-------0-------0-------0-------0-------0-------0-------0-------|
A|-----------------------------------------------------------------------|
E|-3---3---3---3---3---3---3---3---3---3---3---3---3---3---3---3---------|

E|-----------------------------------------------------------------------|
B|-----------------------------------------------------------------------|
G|---0-------0-------------------0-------0-------0-------0---------------|
D|-------4-------2---0---------------0-------0-------0-------0----0------|
A|-----------------------3---2-------------------------------------------|
E|-3---3---3---3---3---3---3---3---3---3---3---3---3---3---3---3---------|

E|-----------------------------------------------------------------------|
B|-----------------------------------------------------------------------|
G|---0-------0-----------------------0-------0-------0-------0-----------|
D|-------4-------2---0-----------2-------2-------0-------0---------------|
A|-----------------------3---2-----------------3---3---3---3-------------|
E|-3---3---3---3---3---3---3---0---0---0---0-----------------------------|


E|------------------------------------|
B|------------------------------------|
G|-------0-------0-------0------------|
D|---0-------0-------0-------0----0---|
A|------------------------------------|
E|-3---3---3---3---3---3---3---3------|


E|-----------------------------------------------------------------------|
B|-----------------------------------------------------------------------|
G|---0-------0-------------------0-------0-------0-------0---------------|
D|-------4-------2---0---------------0-------0-------0-------0----0------|
A|-----------------------3---2-------------------------------------------|
E|-3---3---3---3---3---3---3---3---3---3---3---3---3---3---3---3---------|

E|-----------------------------------------------------------------------|
B|-----------------------------------------------------------------------|
G|---0-------0-----------------------0-------0-------0-------0-----------|
D|-------4-------2---0-----------2-------2-------0-------0---------------|
A|-----------------------3---2-----------------3---3---3---3-------------|
E|-3---3---3---3---3---3---3---0---0---0---0-----------------------------|


E|------------------------------------|
B|------------------------------------|
G|-------0-------0-------0-------0----|
D|---0-------0-------0-------0--------|
A|------------------------------------|
E|-3---3---3---3---3---3---3---3------|

Chorus thing
E|-----------------------------------------------------------------------|
B|-----------------------------------------------------------------------|
G|-------0-------0-------0-------0-------0-------0-------0-------0-------|
D|---0-------0-------0-------0-------0-------0-------0-------0-----------|
A|-----------------------------------------------------------------------|
E|-8---8---8---8---10--10--10--10--7---7---7---7---8---8---8---8---------|


E|-----------------------------------------------------------------------|
B|-----------------------------------------------------------------------|
G|-------0-------0--------0-------0-------0-------0--------0-------0-----|
D|---0-------0-------0--------0-------0-------0-------0--------0---------|
A|-----------------------------------------------------------------------|
E|-8---8---8---8---10--10--10--10--12--12--12--12--12--12--12--12--------|

E|-----------------------------------------------------------------------|
B|-----------------------------------------------------------------------|
G|-------0-------0-------0-------0-------0-------0-------0-------0-------|
D|---0-------0-------0-------0-------0-------0-------0-------0-----------|
A|-----------------------------------------------------------------------|
E|-8---8---8---8---10--10--10--10--7---7---7---7---8---8---8---8---------|

E|------------------------------------|
B|------------------------------------|
G|-------0-------0-------0-------0----|
D|---0-------0-------2-------2--------|
A|------------------------------------|
E|-5---5---5---5---0---0---0---0------|

E|-----------------------------------------------------------------------|
B|-------1---------------1---------------1----------------1--------------|
G|---------------0---------------0---------------0---------------0-------|
D|---0-------0-------0-------0-------0-------0-------0-------0-----------|
A|-----------------------------------------------------------------------|
E|-3---3---3---3---3---3---3---3---3---3---3---3---3---3---3---3---------|

verse 2

E|-----------------------------------------------------------------------|
B|-----------------------------------------------------------------------|
G|---0-------0-------0-------0-------0-------0-------0-------0-----------|
D|-------0-------0-------0-------0-------0-------0-------0-------0-------|
A|-----------------------------------------------------------------------|
E|-3---3---3---3---3---3---3---3---3---3---3---3---3---3---3---3---------|

E|-----------------------------------------------------------------------|
B|-----------------------------------------------------------------------|
G|---0-------0-------------------0-------0-------0-------0---------------|
D|-------4-------2---0---------------0-------0-------0-------0----0------|
A|-----------------------3---2-------------------------------------------|
E|-3---3---3---3---3---3---3---3---3---3---3---3---3---3---3---3---------|

E|-----------------------------------------------------------------------|
B|-----------------------------------------------------------------------|
G|---0-------0-----------------------0-------0-------0-------0-----------|
D|-------4-------2---0-----------2-------2-------0-------0---------------|
A|-----------------------3---2-----------------3---3---3---3-------------|
E|-3---3---3---3---3---3---3---0---0---0---0-----------------------------|


E|------------------------------------|
B|------------------------------------|
G|-------0-------0-------0-----------|
D|---0-------0-------0-------0----0----|
A|------------------------------------|
E|-3---3---3---3---3---3---3---3------|


E|-----------------------------------------------------------------------|
B|-----------------------------------------------------------------------|
G|---0-------0-------------------0-------0-------0-------0---------------|
D|-------4-------2---0---------------0-------0-------0-------0----0------|
A|-----------------------3---2-------------------------------------------|
E|-3---3---3---3---3---3---3---3---3---3---3---3---3---3---3---3---------|

E|-----------------------------------------------------------------------|
B|-----------------------------------------------------------------------|
G|---0-------0-----------------------0-------0-------0-------0-----------|
D|-------4-------2---0-----------2-------2-------0-------0---------------|
A|-----------------------3---2-----------------3---3---3---3-------------|
E|-3---3---3---3---3---3---3---0---0---0---0-----------------------------|


E|------------------------------------|
B|------------------------------------|
G|-------0-------0-------0-------0----|
D|---0-------0-------0-------0--------|
A|------------------------------------|
E|-3---3---3---3---3---3---3---3------|


Chorus 2
E|-----------------------------------------------------------------------|
B|-----------------------------------------------------------------------|
G|-------0-------0-------0-------0-------0-------0-------0-------0-------|
D|---0-------0-------0-------0-------0-------0-------0-------0-----------|
A|-----------------------------------------------------------------------|
E|-8---8---8---8---10--10--10--10--7---7---7---7---8---8---8---8---------|


E|-----------------------------------------------------------------------|
B|-----------------------------------------------------------------------|
G|-------0-------0--------0-------0-------0-------0--------0-------0-----|
D|---0-------0-------0--------0-------0-------0-------0--------0---------|
A|-----------------------------------------------------------------------|
E|-8---8---8---8---10--10--10--10--12--12--12--12--12--12--12--12--------|

E|-----------------------------------------------------------------------|
B|-----------------------------------------------------------------------|
G|-------0-------0-------0-------0-------0-------0-------0-------0-------|
D|---0-------0-------0-------0-------0-------0-------0-------0-----------|
A|-----------------------------------------------------------------------|
E|-8---8---8---8---10--10--10--10--7---7---7---7---8---8---8---8---------|

E|------------------------------------|
B|------------------------------------|
G|-------0-------0-------0-------0----|
D|---0-------0-------2-------2--------|
A|------------------------------------|
E|-5---5---5---5---0---0---0---0------|

E|-----------------------------------------------------------------------|
B|-------1---------------1---------------1----------------1--------------|
G|---------------0---------------0---------------0---------------0-------|
D|---0-------0-------0-------0-------0-------0-------0-------0-----------|
A|-----------------------------------------------------------------------|
E|-3---3---3---3---3---3---3---3---3---3---3---3---3---3---3---3---------|

End part
E|-----------------------------------------------------------------------|
B|--------------------------------------------------------1---------0----|
G|---0-------0-------0-------0-----------0-------0-----------------------|
D|-------0-------0-------0-------0---2-------2-------0-------0-----------|
A|-----------------------------------------------------------------------|
E|-3---3---3---3---3---3---3---3---0---0---0---0---3---3---3---3---------| (x2)

The last one is this
E|---------------------------------------0~--------0~--------3~--------|
B|---------------------------------------0~--------1~--------3~--------|
G|---0-------0-------0-------0---------- 0~--------0~--------0~--------|
D|-------0-------0-------0-------0------ 2~--------2~--------0~--------|
A|---------------------------------------2~--------3~--------2~--------|
E|-3---3---3---3---3---3---3---3------- -0~--------0~--------3~--------|

I know most of this is pretty accurate, sorry if there are any mess ups. Thanks!
Suggest correction
Creating personal tab
Creating personal tab
You can edit any tab online and save it as your Personal.

You can edit, replace or remove any tab part or add personal notes – all changes will be seen only by you.

Personal tabs can be accessed anytime from any device, even offline.
Learn more »
comments
print report bad tab
guest
You may want to rate the tab now too:
select rating
Wanna post a correction for this tab? Suggest correction