Oops, an error
Loading. Please wait.

Sol Solis Tab

29,436 views 36 this week
5 commentsread comments
1 2 3 4 5
excellent!
x 15
add to favorites
launch autoscroll
font size
0
reset
how to read this tab
guitar tuner
Tab Pro tools
  • play this tab
  • loop segment
  • change instrument
  • show fretboard
  • metronome
×
Best way to learn
"Sol Solis"
Autoscroll
slow
fast
+/-
esc
set tempo
stop
Contributor
Capo
7th fret
band: moving mountains
song: sol solis
tabbed by: ryan marko

http://www.myspace.com/movingmountainsmusic
http://www.myspace.com/veggiecorecords
www.movingmountainsmusic.com

standard tuning, capo 7th fret

Intro:


    1 + 2 + 3 + 4 + 1 + 2 + 3 + 4 +

e|--3-----------3---3-----------3---|
b|--3-----------3---3-----------3---|
g|--0-----------2---0-----------2---|
d|--0-----------0---2-----------0---|
a|--2-----------0---2-----------0---|
e|--3-----------2---0-----------2---|
    

    1 + 2 + 3 + 4 + 1 + 2 + 3 + 4 +
   
e|--3-----------3---3---------------|
b|--3-----------3---3---------------|
g|--0-----------2---0---------------|
d|--0-----------0---2---------------|
a|--2-----------0---2---------------|
e|--3-----------2---0---------------|


    1 + 2 + 3 + 4 + 1 + 2 + 3 + 4 +
   
e|--3-----------3---3---------------|
b|--1-----------1---1---------------|
g|--0-----------0---0---------------|
d|--2-----------0---2---------------|
a|--0-----------2---3---------------|
e|----------------------------------|

    1 + 2 + 3 + 4 + 1 + 2 + 3 + 4 +
   
e|--3-----------3---3---------------|
b|--1-----------1---1---------------|
g|--0-----------0---0---------------|
d|--2-----------0---2---------------|
a|--0-----------2---3---------------|
e|----------------------------------|

    1 + 2 + 3 + 4 + 1 + 2 + 3 + 4 +
   
e|--3---------------------------3---|
b|--3---------------------------3---|
g|--0---------------------------2---|
d|--2---------------------------0---|
a|--2---------------------------0---|
e|--0---------------------------2---|


Verse:

    1 + 2 + 3 + 4 + 1 + 2 + 3 + 4 + 1 + 2 + 3 + 4 + 1 + 2 + 3 + 4 +
   
e|--3---------------3---------------3---------------0--------------|
b|--3---------------3---------------3---------------1--------------|
g|--0---------------2---------------0---------------0--------------|
d|--0---------------0---------------2---------------2--------------|
a|--2---------------0---------------2---------------3--------------|
e|--3---------------2---------------0------------------------------|

    1 + 2 + 3 + 4 + 1 + 2 + 3 + 4 + 1 + 2 + 3 + 4 + 1 + 2 + 3 + 4 +
   
e|--3---------------3---------------3---------------0--------------|
b|--3---------------3---------------3---------------1-----------3--|
g|--0---------------2---------------0---------------0-----------0--|
d|--0---------------0---------------2---------------2-----------0--|
a|--2---------------0---------------2---------------3-----------2--|
e|--3---------------2---------------0------------------------------|

    1 + 2 + 3 + 4 + 1 + 2 + 3 + 4 + 1 + 2 + 3 + 4 + 1 + 2 + 3 + 4 +
   
e|--3---------------0---------------0---------------2-------3------|
b|--1---------------1---------------1---------------3-------3------|
g|--0---------------0---------------0---------------2-------0------|
d|--2---------------0---------------2---------------0-------2------|
a|--0---------------2---------------3-----------------------2------|
e|----------------------------------------------------------0------|

    1 + 2 + 3 + 4 + 1 + 2 + 3 + 4 +
   
e|--0---------------0---------------|
b|--1---------------0---------------|
g|--0---------------0---------------|
d|--2---------------2---------------|
a|--3---------------3---------------|
e|----------------------------------|

    1 + 2 + 3 + 4 + 1 + 2 + 3 + 4 +
   
e|--0---------------------------3---|
b|--0---------------------------3---|
g|--0---------------------------2---|
d|--2---------------------------0---|
a|--2---------------------------0---|
e|--0---------------------------2---|  

play everything from the verse again.

then the next part is the intro again.

and thennnnn this:  

    1 + 2 + 3 + 4 + 1 + 2 + 3 + 4 + 1 + 2 + 3 + 4 + 1 + 2 + 3 + 4 +
   
e|--3---------------3---------------3---------------0--------------|
b|--3---------------3---------------3---------------1--------------|
g|--0---------------2---------------0---------------0--------------|
d|--0---------------0---------------2---------------2--------------|
a|--2---------------0---------------2---------------3--------------|
e|--3---------------2---------------0------------------------------|

    1 + 2 + 3 + 4 + 1 + 2 + 3 + 4 + 1 + 2 + 3 + 4 + 1 + 2 + 3 + 4 +
   
e|--3---------------3---------------3---------------0--------------|
b|--3---------------3---------------3---------------1-----------3--|
g|--0---------------2---------------0---------------0-----------0--|
d|--0---------------0---------------2---------------2-----------0--|
a|--2---------------0---------------2---------------3-----------2--|
e|--3---------------2---------------0------------------------------|

    1 + 2 + 3 + 4 + 1 + 2 + 3 + 4 + 1 + 2 + 3 + 4 + 1 + 2 + 3 + 4 +
   
e|--3---------------0---------------0---------------2-------3------|
b|--1---------------1---------------1---------------3-------3------|
g|--0---------------0---------------0---------------2-------0------|
d|--2---------------0---------------2---------------0-------2------|
a|--0---------------2---------------3-----------------------2------|
e|----------------------------------------------------------0------|

    1 + 2 + 3 + 4 + 1 + 2 + 3 + 4 + 1 + 2 + 3 + 4 + 1 + 2 + 3 + 4 +
   
e|--0---------------2-------3-------0---------------2-------3------|
b|--1---------------3-------3-------1---------------3-------3------|
g|--0---------------2-------0-------0---------------2-------0------|
d|--2---------------0-------2-------2---------------0-------2------|
a|--3-----------------------2-------3-----------------------2------|
e|--------------------------0-------------------------------0------|

    1 + 2 + 3 + 4 + 1 + 2 + 3 + 4 + 
   
e|--0------------------------------|
b|--1------------------------------|
g|--0------------------------------|
d|--2------------------------------|
a|--3------------------------------|
e|---------------------------------|

    1 + 2 + 3 + 4 + 1 + 2 + 3 + 4 + 
   
e|--3-------3-------3--------------|
b|--3-------3-------3--------------|
g|--0-------0-------0--------------| 
d|--2-------0-------2--------------|
a|--2-------2-------3--------------|
e|--0-------3----------------------|
comments
print report bad tab
5 comments total. Showing first comments.
+3 reply
keneticshark24 wrote on February 3 2008, 06:30 pm

Nice job - think you could do 8105 next? :D

+4 reply
nolan182 wrote on October 1 2008, 07:36 pm

yeah i want 8105 too. sol solis is the best though thanks

+2 reply
Rabada wrote on February 27 2009, 12:04 am

Great! I love this band!

I want to post or [tab]
guest
You may want to rate the tab now too:
select rating
Please do not post tabs as comments. Select "correction" instead!