Oops, an error
Loading. Please wait.

Anyone Bass Tab

version 1
version 1

Whole song

1,344 views 1 this week
2 commentsread comments
1 2 3 4 5
2 more votes to show rating
add to favorites
launch autoscroll
font size
0
reset
guitar tuner
Autoscroll
slow
fast
+/-
esc
set tempo
stop
Help us to improve Ultimate-Guitar.com Take our survey!
×
-------------------------------------------------------------------------------
			        Band Name - Moving Units

				SONG NAME - Anyone

-------------------------------------------------------------------------------

Tabbed By : ivorylineslead


Tuning: Standard


Intro, Verse, Chorus:

G|---------------------------------------------------------------------|
D|---------------------------------------------------11--11------------|
A|--9--9---7-9-7---9--9-------7-9-7----9--9--7-9-7-----------7--7-9-7--|
E|------------------------0~-------------------------------------------|


Comments: 
         
Just play this riff for the whole song.  Listen for any pauses.  It is
pretty easy to figure out.  My first TAB.  Thanks.
Suggest correction
Give kudos to tab author, rate the tab!
1 2 3 4 5
comments
print report bad tab
2 comments total.
0 reply
nashawa 161 Oct 11, 2010 01:34 AM

Very, close, but it's more like this:


G|-----------------------------------------------------------|
D|----------------------------------------11-----------------|
A|-9-9--7-9-7-9--9------10-7-9-9-9--7-9-7-----10------7-10-7-|
E|-----------------0--0--------------------------0--0--------|

0 reply
nashawa 161 Oct 11, 2010 01:36 AM

EDIT: Take out the second last 7 in that line.

guest
You may want to rate the tab now too:
select rating
Wanna post a correction for this tab? Suggest correction