Oops, an error
Loading. Please wait.

Available Bass

1,224 views 1 this week
no commentswrite comment
1 2 3 4 5
1 last vote to show rating
add to favorites
launch autoscroll
font size
0
reset
guitar tuner
×
Best way to learn
"Available"
Autoscroll
slow
fast
+/-
esc
set tempo
stop
Author
Difficulty
Song:Available
Artist:Moving Units
Album:Dangerous Dreams
Tabbed By:RobRomanos

Verse
G|---11-11----------11-11--------9-|---11-11----------11-11---14-12-11-|
D|-----------9-11-----------9-11---|-----------9-11--------------------|
A|-9-------9------9-------9--------|-9-------9------9-------9----------|
E|---------------------------------|-----------------------------------|

Chorus
G|---89---89----67---34------------------------9----|
D|-------------------------9-11---9-11---9-11----11-|
A|-7----7-----5----5-----9------9------9------9-----|
E|--------------------------------------------------|

Break
G|------------------------9----|
D|---9-11---9-11---9-11-----11-|
A|-9------9------9------9------|
E|-----------------------------|

Suggest correction
Give kudos to tab author, rate the tab!
1 2 3 4 5
comments
print report bad tab
guest
You may want to rate the tab now too:
select rating
Wanna post a correction for this tab? Suggest correction