Oops, an error
Loading. Please wait.

Between Us And Them Tab

version 1
version 1

Whole song

Interactive

3,426 views 6 this week
no commentswrite comment
1 2 3 4 5
please rate
add to favorites
launch autoscroll
font size
0
reset
how to read this tab
guitar tuner
Autoscroll
slow
fast
+/-
esc
set tempo
stop
Help us to improve Ultimate-Guitar.com Take our survey!
×
Difficulty
novice
Tablature provided by BangBangOmaYang



e-|---------------------------------------------------------------------|x3
B-|--33-0-33-0-33-0-33-0-33-0-33-0-33-0-33-0-33-0-----------------------|
G-|--33-0-33-0-33-0-33-0-33-0-33-0-33-0-33-0-33-0-----------------------|
D-|---------------------------------------------------------------------|
A-|---------------------------------------------------------------------|
E-|---------------------------------------------------------------------|

  "I'm understanding....and the furniture, matches the ceiling"  
e-|---3-------3----15-------15------------------------------------------|
B-|----3------3----15---------15-----3333-------------------------------|
G-|-----3-----3----15-----------15---55555b-3---------------------------|
D-|---------------------------------------------------------------------|
A-|---------------------------------------------------------------------|
E-|---------------------------------------------------------------------|

  "If it was differant then...."
e-|---------------------------------------------------------------------|
B-|--33-33-11-11-33-33-11-11-33-33-11-11-33-33-11-11111-----------------|
G-|--33-33-22-22-33-33-00-00-33-33-22-22-33-33-00-00000-----------------|
D-|---------------------------------------------------------------------|
A-|---------------------------------------------------------------------|
E-|---------------------------------------------------------------------|
Suggest correction
Give kudos to tab author, rate the tab!
1 2 3 4 5
comments
print report bad tab
guest
You may want to rate the tab now too:
select rating
Please do not post tabs as comments. Select "correction" instead!