Oops, an error
Loading. Please wait.

Animales Bass

by Mox
39 views 1 this week
no commentswrite comment
1 2 3 4 5
3 more votes to show rating
add to favorites
launch autoscroll
font size
0
reset
guitar tuner
×
Best way to learn
"Animales"
Autoscroll
slow
fast
+/-
esc
set tempo
stop
  ***************************
  *   Tab proveniente de    *
  *  *
  ***************************

INTRO:
(Va el bajo solo x2 y después se mete la guitarra x4)
G|----------------------------|
D|------------------------4---|
A|---------------3-3-3--5---5-|
E|-3-3-3--2-3-2---------------|

G|----------------------------|
D|----------------------------|
A|-------------3---3----------|
E|-3---3-2---2----------5---5-|
   Mucha gente tiene animales...

G|----------------------------|
D|----------------------------|
A|-5---5---5------------------|
E|------------3--3--3--5--5---|
   Suelen ser muy parecidos...

CORO:
G|----------------------------|
D|------------------------4---|
A|---------------3-3-3--5---5-|
E|-3-3-3--2-3-2---------------|
   El cedro de tu padre....

G|----------------------------|
D|------------------------4---|
A|---------------3-3-3--5---5-|
E|-3-3-3--2-3-2---------------|
   Y ahora los animales...el perro...
=====================================================
Bueno ojala les guste la canción, no dejen de visitar
 que ahora está actualizada.
Si tienen la canción 'Me chupó las bolas',
'Me lleva a cien' o 'Sobacol' por favor mandenlas
a nicomox@
Suggest correction
Give kudos to tab author, rate the tab!
1 2 3 4 5
comments
print report bad tab
guest
You may want to rate the tab now too:
select rating
Wanna post a correction for this tab? Suggest correction