Oops, an error
Loading. Please wait.

Bronceado De Cantina Tab

by Mox
68 views 3 this week
no commentswrite comment
1 2 3 4 5
3 more votes to show rating
add to favorites
launch autoscroll
font size
0
reset
how to read this tab
guitar tuner
Autoscroll
slow
fast
+/-
esc
set tempo
stop
Help us to improve Ultimate-Guitar.com Take our survey!
×
|---------------------------------------------------|
|-9-------------10---9-------9----------------------|
|-----11--9--11---------11-------11--9---8----9-----|
|---------------------------------------------------|
|---------------------------------------------------|
|---------------------------------------------------|

|---------------------------------------------------|
|-9-------------10-----8-----9----------------------|
|-----11--9--11--------------------11--9--8--9------|
|---------------------------------------------------|
|---------------------------------------------------|
|---------------------------------------------------|

verso (todo con palm muting)

E
no hace falta ir a un balneario
A
no hace falta un bronceador
E
no hace falta ir al solarium
B            A
ni tampoco estar al sol
E
y las chicas me comentan
(G#) A      B  C
que atractivo tu color
    E      B         E
que obtuve sin tomar sol

coro

    E
bronceado de cantina!
   A
producto del alcohol
    E
bronceado de cantina!
    B            A
que cambio que color
    E
bronceado de cantina!
A       B     C
luzco como un playboy
  E     B   A-G#  E
tomando sin tomar sol

E
tengo un tono fascinante
A
atractivo y tentador
E
pues mis vasos capilares
B           A
se cocieron en alcohol
E
mi nariz esta muy roja
A            B  C
y aunque un ojo se me va
E        B           E
soy la envidia del lugar

bronceado de cantina!
producto del alcohol
bronceado de cantina!
que cambio que color
bronceado de cantina!
luzco como un playboy
tomando sin tomar sol

solo:

|----------------------------------------------------------------------|
|-9-------------10---9---------9----------------------12---------------|
|-----11--9--11---------11--9------11--9------9-11b-------11b-r--11b-r-|
|------------------------------------------11--------------------------|
|----------------------------------------------------------------------|
|----------------------------------------------------------------------|

|--------------------------------------------------------------------|
|-14---12---------------------------------------------12-------------|
|----------13--13-14--13--11-------9------9--11h12----------9-p11p13-|
|---------------------------14p11-----11-----------------------------|
|--------------------------------------------------------------------|
|--------------------------------------------------------------------|


 parte de acordeón, arreglado para guitarra
|-----------------------------4-7-5-7-5-0-5-7-5-0-5---5---7---5----|
|-5-7-5-0-5-7-5-0-5-7-5-0-5-7--------------------------------------|
|------------------------------------------------------------------|
|------------------------------------------------------------------|
|------------------------------------------------------------------|
|------------------------------------------------------------------|

|-4---4---4---5---4---4---5---4---------------4--------------------|
|---------------------------------7---7---7--------7------4--------|
|------------------------------------------------------------------|
|------------------------------------------------------------------|
|------------------------------------------------------------------|
|------------------------------------------------------------------|

|-----------------------------4-7-5-7-5-0---5---7---8-----------8--|
|-5-7-5-0-5-7-5-0-5-7-5-0-5-7---------------------------8----------|
|-----------------------------------------------------------9------|
|------------------------------------------------------------------|
|------------------------------------------------------------------|
|------------------------------------------------------------------|

|-7---4-------7---5-----------5---------------12-11-9--------------|
|---------5-----------7---4-------7---5---------------12-10--------|
|-----------------------------------------------------------11-9---|
|------------------------------------------------------------------|
|------------------------------------------------------------------|
|------------------------------------------------------------------|

se repite el coro:

bronceado de cantina!
producto del alcohol
bronceado de cantina!
que cambio que color
bronceado de cantina!
luzco como un playboy
tomando sin tomar sol

    E                  A
bronceado de cantina!
    E                  B   A
bronceado de cantina!
    E                  A  B-C
bronceado de cantina!
    E           B     A-G#-E
bronceado de cantina!
Suggest correction
Give kudos to tab author, rate the tab!
1 2 3 4 5
comments
print report bad tab
guest
You may want to rate the tab now too:
select rating
Wanna post a correction for this tab? Suggest correction