Oops, an error
Loading. Please wait.

Churi Churin Fun Flais Tab

65 views 1 this week
no commentswrite comment
1 2 3 4 5
3 more votes to show rating
add to favorites
launch autoscroll
font size
0
reset
how to read this tab
guitar tuner
×
Best way to learn
"Churi Churin Fun Flais"
Autoscroll
slow
fast
+/-
esc
set tempo
stop
Grupo:    Los Mox! (Cover Chespirito)

   B         E         F#         B
1|--------------------------------------
2|-----------------------7--------------
3|---8----6-8--9----6-8-------6-8-9-8---
4|------9---------9---------9-----------
5|--------------------------------------
6|--------------------------------------

   B         E         F#           B-F#
1|------------------------------6-9-7---
2|-----------------------7--7-9---------
3|---8----6-8--9----6-8-----------------
4|------9---------9---------------------
5|--------------------------------------
6|--------------------------------------


    B           F#
Hay una palabra clave
    E      F#      B
que significa kien sabe
B         G#      F#
Churi Churin Fun Flais
G#         D#-C#-B
Churi Churin Fun Flais

    B            F#
Por eso como respuesta
    E         F#    B
La gran solucion es esta
 E
Siempre responde
F#                B
Churi Churin Fun Flais

B           F#
Yo te lo aseguro
E          B
Nunca fallara
  G#         C#
Cuando tu respondas
                  F#
Churi Churin Fun Flais

Existe ya mucha gente
Que te dice solamente
Churi Churin Fun Flais
Churi Churin Fun Flais

Y muchos en un discurso
Ya tienen este recurso
Tan solo dicen
Churi Churin Fun Flais

*Punteo del principio*

Yo te lo aseguro
Nunca fallara
Cuando tu respondas
Churi Churin Fun Flais

Y como esas dos señoras
Por telefono dos horas
Churi Churin Fun Flais
Churi Churin Fun Flais

Por eso los abogados
Que acuden a los juzgados
Tan solo dicen
Churi Churin Fun Flais

Yo te lo aseguro
Nunca fallara
Cuando tu respondas
Churi Churin Fun Flais

B - F#
Suggest correction
Give kudos to tab author, rate the tab!
1 2 3 4 5
comments
print report bad tab
guest
You may want to rate the tab now too:
select rating
Wanna post a correction for this tab? Suggest correction