Oops, an error
Loading. Please wait.

Mameluco Tab

3 views 1 this week
no commentswrite comment
1 2 3 4 5
3 more votes to show rating
add to favorites
launch autoscroll
font size
0
reset
how to read this tab
guitar tuner
×
Best way to learn
"Mameluco"
Autoscroll
slow
fast
+/-
esc
set tempo
stop
  ***************************
  *   Tab proveniente de    *
  *  *
  ***************************

Esta es una canción pa' los weones que tienen
la suerte de tener el disco 'TOMEN' por que es
terrible' difícil encontrarlo...

[RIFF 1]
   C  C   D   G
e|--------------|
B|--------------|
G|-5--5---7-----|
D|-5--5---7---5-|
A|-3--3---5---5-|
E|------------3-|
                     
[RIFF 2]
   C  C  D   C  D   C  D  G  G
e|-----------------------------|
B|-----------------------------|
G|-5--5--7---5--7---5--7-------|
D|-5--5--7---5--7---5--7--5--5-|
A|-3--3--5---3--5---3--5--5--5-|
E|------------------------3--3-|

[RIFF 1] Mameluco!!!
[RIFF 1] Mameluco!!!
[RIFF 2] Mameluco!!!

[RIFF 1] Chupicidio!!!
[RIFF 1] Chupicidio!!!
[RIFF 2] Chupicidio!!!

[RIFF 1] El Contacto!!!
[RIFF 1] El Contacto!!!
[RIFF 2]
Suggest correction
Give kudos to tab author, rate the tab!
1 2 3 4 5
comments
print report bad tab
guest
You may want to rate the tab now too:
select rating
Wanna post a correction for this tab? Suggest correction