Oops, an error
Loading. Please wait.

Manuela Bass

by Mox
100 views 1 this week
no commentswrite comment
1 2 3 4 5
3 more votes to show rating
add to favorites
launch autoscroll
font size
0
reset
guitar tuner
×
Best way to learn
"Manuela"
Autoscroll
slow
fast
+/-
esc
set tempo
stop
Aunque me duela...
(0:01)

G|-------------------------------
D|-------------------------------            (x2)
A|----------02-222222------------
E|0023-33333---------0-0000000---


Si no me quiere pronto partiré...
(0:11)

G|-------------------
D|00000000-----------                        (x4)
A|-------------------
E|--------33333333---

Uooooooooooooooooo....
(0:24)

G|-------------------
D|-------------------
A|22222222-----------
E|--------00000000---

Aunque me duela... (la segunda vez que lo dice, más rápido)
(0:27)

G|-------------------
D|-------------------                        (x4)
A|22222222-----------
E|--------00000000---


Luego todo hasta aka se repite dos veces. La primera repetición
es del solo de trompetas, en la que hay un punteo distinto por
parte del bajo en la parte que dice "Si no me quiere pronto..."
y es así:
(0:52-1:04)

G|---2---2-----------
D|0-4-0-4----0---0---                        (x4)
A|----------2---2----
E|--------3---3------


La repetición llega hasta el
"Uooooooooooooo...". (1:07)
Después una segunda repetición con letra incluída el final y
luego viene otro solo de trompeta con las guitarras:
(1:08 - 1:49)

G|------------------
D|--14--14----------                         (x7)
A|2---2------2---2--
E|--------0-3-0-3---

G|------------
D|--14--14----
A|2---2-------
E|--------0---


Aunque me duela...(el de la segunda vez)
(2:13)

G|-------------------
D|-------------------                        (x8)
A|22222222-----------
E|--------00000000---
Suggest correction
Give kudos to tab author, rate the tab!
1 2 3 4 5
comments
print report bad tab
guest
You may want to rate the tab now too:
select rating
Wanna post a correction for this tab? Suggest correction