Oops, an error
Loading. Please wait.

Mi Gran Noche Tab

by Mox
57 views 1 this week
no commentswrite comment
1 2 3 4 5
3 more votes to show rating
add to favorites
launch autoscroll
font size
0
reset
how to read this tab
guitar tuner
×
Best way to learn
"Mi Gran Noche"
Autoscroll
slow
fast
+/-
esc
set tempo
stop
    Am      G                   Am      G
 E--12-10----10-10-10-10--------12-10----10-10-10-10-------
 B-------13-------------13-12--------13-------------13-12--
 G---------------------------------------------------------
 D---------------------------------------------------------
 A---------------------------------------------------------
 E---------------------------------------------------------

    Am                 Am7
 E--12-10---------------------
 B-------13---13-13-13-13-----
 G----------------------------
 D----------------------------
 A----------------------------
 E----------------------------

        Am                                 E
Cansado ya de aguantar a papá decidí emanciparme
           E                                    Am
Y lo hice así, una noche salí dispuesto a desahogarme.
           G                                     C
A un dancing fui con mi traje kaki de color verde nilo,
         E                                           Am
Mi noche fue, mas de un trompo baile y perdí casi un kilo

            G                                            Am (Am-D-D-Am)
Baile con chicas que estaban muy bien, que a uno le pone mal,
Pero ella vieron que yo era también un tipo fenomenal.

            G                               Am     (Am-D-D-Am)
 E---------------------------------------12--------
 B----12-13-15-12--15-12--15--15-15-15-15---13-----
 G--14-----------12-----12---------------------14--
 D-------------------------------------------------
 A-------------------------------------------------
 E-------------------------------------------------

       Am                                 E
Como palomas a mi alrededor las vi revolotear,
        E                                        Am
aquella noche yo fui el cazador y el amo del palomar.
       G                                        C
Y sucedió que mas de una cayo en su propia emboscada,
        E                                    Am
el caso fue que las idiotice con solo una mirada.

              G                                 Am    (Am-D-D-Am)
Y que iba hacer, me dejaba querer y seguía de antojo,
Si bien después, con los aires de un juez, las mire de reojo.
Baile con chicas que estaban muy bien, que a uno le pone mal,
Pero ella vieron que yo era también un tipo fenomenal.

           Am                                        E
Ya son las tres, estoy solo en el bar, camarero otro whisky,
           E                                       Am
Haga un favor, quiero continuar aunque yo no estoy triste.
            G                                      C
Quiero otra vez el poder fabricar los mas bellos en sueños,
        E                                     Am
Puedo pagar, un obrero yo soy, otra copa y me marcho.

          G                                             Am  (Am-D-D-Am)
Baile con chicas que estaban muy bien, que a uno le pone mal,
pero ella vieron que yo era también un tipo fenomenal.
Bailamos con chicas que estaban muy bien, que nos ponen mal,
Pero ellas vieron que somos Los Mox un grupo fenomenal.
Lalalalalalalalalala vamos a hueviar.
Suggest correction
Give kudos to tab author, rate the tab!
1 2 3 4 5
comments
print report bad tab
guest
You may want to rate the tab now too:
select rating
Wanna post a correction for this tab? Suggest correction