Oops, an error
Loading. Please wait.

No Lo Aceptaremox Tab

by Mox
163 views 3 this week
no commentswrite comment
1 2 3 4 5
3 more votes to show rating
add to favorites
×
Save as Personal and add changes to this tab that will be seen only by you. Learn more ›
×
You can save this tab as Personal to edit and correct it or add notes. All changes will be seen only by you. Learn more »
save as personal
new!
launch autoscroll
font size
0
reset
how to read this tab
guitar tuner
Autoscroll
slow
fast
+/-
esc
set tempo
stop
 Gran tema, original de Twisted Sister, el nomvre original es
We´re Gonna Take It...gran version de "los mox"..

Esta transcripcion fue escrito por Héctor González lobos...
guitarrista de ?Metal Shwager?..grupo chileno emergente?
saludos a todos los metaleros y rockeros del mundo

.................................................................

No Lo Aceptaremox

Intro de bateria

No lo aceptaremos?NO?
No lo aceptaremos?.
                        E   D#   C#   B  x2
No lo aceptaremos?esta vez


E          B
Hombre del chevikismo
E       A
Y no lo perderemos
E          B
Es nuestra vida,
        E          B
Nuestra cancion


E              B
Combatir los poderes
E         A
que rigen el destino
E          B               E    B
No nos conoces, no eres de acá


E         B       E
No lo aceptaremos?NO?
          A
No lo aceptaremos?.
E         B            E         B
No lo aceptaremos?esta vez


E        B
Eres tan complaciente,
E         A
no haces lo que sientes
E          B                 E      B
No quiero nada que venga de ti


E         B
Tu vida es triste y fea
E       A
hombre como las weas
E          B              E   D#   C#   B
si eres feliz, que mal estas


D    C#   B
oh oh oh
D    C#   B
oh oh oh


       E
Vamos bien     [ch]B[/ch]
       F
Somos libres   [ch]B[/ch]
    F#
A pelear     [ch]B[/ch]
     B
Ya veran Uou, uou, uou...


E         B       E
No lo aceptaremos?NO?
          A
No lo aceptaremos?.
E         B            E            B
No lo aceptaremos?esta vez

Las bases del solo son =es al verso

Solo
e|-----------------|----------------------|---------------|
B|-----------------|-9----9-10-10-10-9----|-9-----------9-|
G|-9-9-9-9-11---11-|---11--------------11-|-----11-9-11---|
D|------------9----|----------------------|---------------|
A|-----------------|----------------------|---------------|
E|-----------------|----------------------|---------------|

e|--------------------|
B|-------12-12-12-12--|
G|-9-9-9--------------|
D|--------------------|
A|--------------------|
E|--------------------|

e|-------------------|-------------------|-------------------|
B|-------------------|-9---------9-10----|-9--9------------9-|
G|-9---9----9--11----|----9--11--------9-|-------11--9-11----|
D|-------9--------9--|-------------------|-------------------|
A|-------------------|-------------------|-------------------|
E|-------------------|-------------------|-------------------|

e|---------------|
B|---------------|
G|-9--9--9-------|
D|---------------|
A|---------------|
E|---------------|


D    C#   B
oh oh oh
D    C#   B
oh oh oh

       E
Vamos bien  ??   si
       F
Somos libres ??  si
    F#
A pelear ??   [ch]B[/ch]
      B
Ya veraaaaaaaaaaaaaaan


Final:
Huevos con aceite? weon
Huevos con aceite
Huevo con aceito y limon


E              B
Huevos con aceite? weon
E               A
Huevos con aceite
E               B       E    B
Huevos con aceite y jamon


Huevos con aceite? weon
Huevos con aceite
Huevos con aceite y mamon

Huevos con aceite? weon
Huevos con aceite
Huevos con aceite, mejor tu hermana caliente
Huevos con aceite y un mamon


Huevos con aceite? weon
Huevos con aceite
Huevos con aceite, mejor tu abuela caliente
Huevos con aceite y un mojon


Cualquier duda o consulta agreguenme al msn
cannibal__angel@
Suggest correction
Give kudos to tab author, rate the tab!
1 2 3 4 5
comments
print report bad tab
guest
Wanna post a correction for this tab? Suggest correction