Oops, an error
Loading. Please wait.

Tan Bonita Y Tan Hueca Bass

version 1
version 1

Whole song

17 views 1 this week
no commentswrite comment
1 2 3 4 5
3 more votes to show rating
add to favorites
launch autoscroll
font size
0
reset
guitar tuner
×
Best way to learn
"Tan Bonita Y Tan Hueca"
Autoscroll
slow
fast
+/-
esc
set tempo
stop
  ***************************
  *   Tab proveniente de    *
  *  *
  ***************************

[RIFF1]
G|------------------------|
D|------------------------|
A|-4--4--------6--6-------|
E|-------4--4--------4--4-|

[RIFF2]
G|----------------------------------------------------|
D|----------------------------------------------------|
A|-4-4-4-4-4-4-4-4-4-4-4-4----------------------------|
E|---------------------------4-4-4-4-4-4-4-4-4-4-4-4--|
   Es quebrada, es quebrada. No me pesca ni en bajada

[RIFF3]
G|----------------------------------------------------|
D|----------------------------------------------------|
A|-6-6-6-6-6-6-6-6-6-6-6-6----------------------------|
E|---------------------------4-4-4-4-4-4-4-4-4-4-6-8--|
   Es quebrada, es quebrada. No me pesca ni en bajada
[RIFF4]
G|------------------------------------------|
D|------------------------------------------|
A|-6-6-6-6-6-6-6-6-6-6-6-6------------------|
E|---------------------------4--4-4-4-4-6-8-|
   Es quebrada, es quebrada  no
***********************************************************
*LETRA y ESTRUCTURA*

INTRO: [RIFF1] (x4)

[RIFF1]                
Tan bonita y tan hueca 
[RIFF1]
va llegando a la discoteca
[RIFF1]
no me pesca no soy modelo
[RIFF1]
soy galan de medio pelo

[RIFF2]
es quebrada es quebrada no me pesca ni en bajada
[RIFF3]
es quebrada es quebrada no me pesca ni en bajada
[RIFF2]
es quebrada es quebrada no me pesca ni en bajada 
[RIFF4]
es quebrada es quebrada  no!

[RIFF1] (x4)

[RIFF1]
Tan bonita y tan hueca 
[RIFF1]
baila sola muy coqueta
[RIFF1]
no me pesca estoy curado
[RIFF1]
baila con un cuico culiado

[RIFF2]
Es quebrada es quebrada no me pesca ni en bajada
[RIFF3]
es quebrada es quebrada no me pesca ni en bajada
[RIFF2]
es quebrada es quebrada no me pesca ni en bajada 
[RIFF4]
es quebrada es quebrada  no!
=================================================
No te olvides de visitar 
Suggest correction
Give kudos to tab author, rate the tab!
1 2 3 4 5
comments
print report bad tab
guest
You may want to rate the tab now too:
select rating
Wanna post a correction for this tab? Suggest correction