Oops, an error
Loading. Please wait.

Tan Bonita Y Tan Hueca Bass

version 2
version 2

Whole song

by Mox
15 views 1 this week
no commentswrite comment
1 2 3 4 5
3 more votes to show rating
add to favorites
launch autoscroll
font size
0
reset
guitar tuner
×
Best way to learn
"Tan Bonita Y Tan Hueca"
Autoscroll
slow
fast
+/-
esc
set tempo
stop
INTRO, VERSO
G|---------------------------------|
D|---------------------------------| 
A|-3-3-3-3---------5-5-5-5---------|
E|---------3-3-3-3---------3-3-3-3-|

CORO PARTE 1
G|--------------------------------------------------|
D|--------------------------------------------------|
A|-3-3-3-3-3-3-3-3-3-3-3-3--------------------------|
E|-------------------------3-3-3-3-3-3-3-3-3-3-3-3--|
  

CORO PARTE 2
G|-------------------------------------------------|
D|-------------------------------------------------|
A|-5-5-5-5-5-5-5-5-5-5-5-5-----------------------2-|
E|-------------------------3-3-3-3-3-3-3-3-3-3-5---|
 

CORO PARTE 3
G|------------------------------------------------|
D|------------------------------------------------|
A|-5-5-5-5-5-5-5-5-5-5-5-5----------------------2-|
E|-------------------------3--3--3-3-3--3--3--5---|
   
FINAL
G|-------------------------------------------|
D|-------------------------------------------|
A|-5-5-5-5-5-5-5-5-5-5-5-5-------------------|
E|-------------------------3--3--3-3-3--3--3-|

ORDEN

INTRO, VERSO   X 8
CORO PARTE 1   X 1
CORO PARTE 2   X 1
CORO PARTE 1   X 1
CORO PARTE 3   X 1
INTRO, VERSO   X 8
CORO PARTE 1   X 1
CORO PARTE 2   X 1
CORO PARTE 1   X 1
FINAL          X 1
Suggest correction
Give kudos to tab author, rate the tab!
1 2 3 4 5
comments
print report bad tab
guest
You may want to rate the tab now too:
select rating
Wanna post a correction for this tab? Suggest correction