Oops, an error
Loading. Please wait.

Tomo Y Obligo Tab

68 views 3 this week
no commentswrite comment
1 2 3 4 5
3 more votes to show rating
add to favorites
launch autoscroll
font size
0
reset
how to read this tab
guitar tuner
×
Best way to learn
"Tomo Y Obligo"
Autoscroll
slow
fast
+/-
esc
set tempo
stop
Este tab es algo largo, pero está completísimo. Una canción
muy buena, y de una buena banda. Y un himno que refleja mis
grandes 12,13,14 años aprox. jajaj
cualquier petición, solo contactame a: 

símbolos usados:
SLIDE ( / ): se deslisa el dedo de una nota a otra.
vibrato ( ~ ): se hace vibrar la nota marcada.
x: la cuerda no debe sonar

INTRO:


E|-----------------------------------------|
B|-----------------------------------------|
G|---8/9--9-9-9/11--11-11-11/13--13-13-13--|----] X3
D|---x-x--x-x-x-x---x--x--x--x---x--x--x---|
A|---6/7--7-7-7/9---9--9--9-/11--11-11-11--|
E|-----------------------------------------|


E|----------------------------------|
B|----------------------------------|
G|---9-11-11--11--11-11/8--8-8-8-8--|
D|---x-x--x---x---x--x--x--x-x-x-x--|
A|---7-9--9---9---9--9-/6--6-6-6-6--|
E|----------------------------------|


E|-----------------------------------------|
B|-----------------------------------------|
G|---8/9--9-9-9/11--11-11-11/13--13-13-13--|-----] X2
D|---x-x--x-x-x-x---x--x--x--x---x--x--x---|
A|---6/7--7-7-7/9---9--9--9-/11--11-11-11--|
E|-----------------------------------------|


E|---------------------------------------------------------|
B|---------------------------------------------------------|
G|---8--8-8-8/9--9-9-9/11--11-11-11/9-9-9-9-9/8-8-8-8-8/9--|
D|---x--x-x-x-x--x-x-x-x---x--x--x--x-x-x-x-x-x-x-x-x-x-x--|
A|---6--6-6-6/7--7-7-7/9---9--9--9-/7-7-7-7-7/6-6-6-6-6/7--|
E|---------------------------------------------------------|


E|-------------------------------------------|
B|-------------------------------------------|
G|----------4---------4---------4---------4--|--------] X2
D|----------4---------4---------4---------4--|
A|---2-2-2--2--2-2-2--2--2-2-2--2--2-2-2--2--|
E|---0-0-0-----0-0-0-----0-0-0-----0-0-0-----|


VERSO:  (ustedes deben escuchar el tema, para ver la cantidad
         de veces que tocan los acordes)

    Me despierto temprano en la tarde
E|---------|
B|---------|
G|---------|
D|---2-----|
A|---2-----|
E|---0-----|


    me masturbo antes de levantarme
E|---------|
B|---------|
G|---6-----|
D|---6-----|
A|---4-----|
E|---------|


    no me ducho por que me da paja
E|---------|
B|---------|
G|---2-----|
D|---2-----|
A|---0-----|
E|---------|


    si con cuea me lavo la raja
E|---------|
B|---------|
G|---4-----|
D|---4-----|
A|---2-----|
E|---------|


    Y espero que se haga de noche
E|---------|
B|---------|
G|---------|
D|---2-----|
A|---2-----|
E|---0-----|


    voy a fiestas sin ningún reproche
E|---------|
B|---------|
G|---6-----|
D|---6-----|
A|---4-----|
E|---------|


    y me gusta que tomen conmigo,
E|---------|
B|---------|
G|---------|
D|---6-----|
A|---6-----|
E|---4-----|

    porque yo cuando tomo obligo
E|---------|------|
B|---------|------|
G|---2-----|---4--|
D|---2-----|---4--|
A|---0-----|---2--|
E|---------|------|


CORO:

    El que no le pone es maricón
E|---------|-------|-----------------|
B|---------|-------|-----------------|
G|---------|-------|-----------------|
D|---6-----|---4---|---------(2)/7-6-|---] (2) ESTÁ ENTRE PARENTESIS
A|---6-----|---4---|-----------------|         PORQUE YO CREO QUE
E|---4-----|---2---|-----------------|         SE DESLIZA DESDE EL 2

E|---------|
B|---------|
G|---------|
D|---2-----|
A|---2-----|
E|---0-----|


    el que no es borracho no es un Mox!
E|---------|--------|
B|---------|--------|
G|---------|--------|
D|---6-----|----4---|
A|---6-----|----4---|
E|---4-----|----2---|

E|-------------------------------------------|
B|-------------------------------------------|
G|----------4---------4---------4---------4--|
D|----------4---------4---------4---------4--|
A|---2-2-2--2--2-2-2--2--2-2-2--2--2-2-2--2--|
E|---0-0-0-----0-0-0-----0-0-0-----0-0-0-----|


    El carrete está fuerte ésta noche
E|---------|
B|---------|
G|---------|
D|---2-----|
A|---2-----|
E|---0-----|

    ya tenemos el tremendo boche
E|---------|
B|---------|
G|---6-----|
D|---6-----|
A|---4-----|
E|---------|

    y entre tantos gritos y copas
E|---------|
B|---------|
G|---2-----|
D|---2-----|
A|---0-----|
E|---------|

    sino tomo se acerca a mi boca
E|---------|
B|---------|
G|---4-----|
D|---4-----|
A|---2-----|
E|---------|

    Se me pone una mina en frente
E|---------|
B|---------|
G|---------|
D|---2-----|
A|---2-----|
E|---0-----|

    buena onda por que ando caliente
E|---------|
B|---------|
G|---6-----|
D|---6-----|
A|---4-----|
E|---------|

    y le pido que tome conmigo,
E|---------|
B|---------|
G|---------|
D|---6-----|
A|---6-----|
E|---4-----|

    porque yo cuando tomo obligo
E|---------|------|
B|---------|------|
G|---2-----|---4--|
D|---2-----|---4--|
A|---0-----|---2--|
E|---------|------|


    el que no le pone es un mamón!
E|---------|-------|------------------------------|
B|---------|-------|------------------------------|
G|---------|-------|------------------------------|
D|---6-----|---4---|---------(2)/7-6----7/11-9~---|
A|---6-----|---4---|------------------------------|
E|---4-----|---2---|------------------------------|

E|---------|
B|---------|
G|---------|
D|---2-----|
A|---2-----|
E|---0-----|

    el que no es borracho no es un Mox!
E|---------|--------|
B|---------|--------|
G|---------|--------|
D|---6-----|----4---|
A|---6-----|----4---|
E|---4-----|----2---|


E|-----------------------------------------|
B|-----------------------------------------|
G|---8/9--9-9-9/11--11-11-11/13--13-13-13--|-----] X3
D|---x-x--x-x-x-x---x--x--x--x---x--x--x---|
A|---6/7--7-7-7/9---9--9--9-/11--11-11-11--|
E|-----------------------------------------|


E|-----------------|
B|-----------------|
G|---14-13-11-9----|-----] X2
D|---x--x--x--x----|
A|---12-11-9--7----|
E|-----------------|


E|-----------------------------------------|
B|-----------------------------------------|
G|---8/9--9-9-9/11--11-11-11/13--13-13-13--|-----] X2
D|---x-x--x-x-x-x---x--x--x--x---x--x--x---|
A|---6/7--7-7-7/9---9--9--9-/11--11-11-11--|
E|-----------------------------------------|


E|---------------------------------------------------------|
B|---------------------------------------------------------|
G|---8--8-8-8/9--9-9-9/11--11-11-11/9-9-9-9-9/8-8-8-8-8/9--|
D|---x--x-x-x-x--x-x-x-x---x--x--x--x-x-x-x-x-x-x-x-x-x-x--|
A|---6--6-6-6/7--7-7-7/9---9--9--9-/7-7-7-7-7/6-6-6-6-6/7--|
E|---------------------------------------------------------|-----] FIN :D

GRACIAS POR TENER PACIENCIA...
Suggest correction
Give kudos to tab author, rate the tab!
1 2 3 4 5
comments
print report bad tab
guest
You may want to rate the tab now too:
select rating
Wanna post a correction for this tab? Suggest correction