Oops, an error
Loading. Please wait.

No Se Por Que (Poderoso) Tab

18 views 3 this week
no commentswrite comment
1 2 3 4 5
3 more votes to show rating
add to favorites
launch autoscroll
font size
0
reset
how to read this tab
guitar tuner
×
Best way to learn
"No Se Por Que (poderoso)"
Autoscroll
slow
fast
+/-
esc
set tempo
stop
#-----------------------------PLEASE NOTE------------------------------------#
# This file is the author's own work and represents their interpretation     #
# of the song. You may only use this file for private study, scholarship, or #
# research.                                                                  #
#----------------------------------------------------------------------------#

Artist/Author: Moxa Aru 
Title: No Sé Por Qué (Poderoso)
Album: Doxa 
Transcribed by: Alvin Magnani
Email: alvinqueloide@


Intro & verse
-------------
Gtr.1 (dist.)
  (F5)
e|-------------------------------|
B|-------------------------------|
G|-------------------------------|
D|-----4-4-2-3-4-----4-----------|
A|-----------------------0-2-3-4-|
E|-0-2-------------0-2-----------|


  (F5)
e|-----------------------------|
B|-----------------------------|
G|-----------------------------|
D|-----4-4-2-3-4---------------|
A|-----------------7-6-5-------|
E|-0-2-------------------7-6-5-|


Pre-chorus 
----------
  (F5)
e|-------------------------------|
B|-------------------------------|
G|-------------------------------|
D|-----4-4-2-3-4-----------------|
A|-----------------7-6-5---------|
E|-0-2-------------------7-6-5-0-|


Chorus 
------
  (F5)
e|----------------------|
B|----------------------|
G|----------------------|
D|------------------9-7-|
A|------------------9-7-|
E|-2-0-2-0-2-0-2-0-/7-5-|


Interlude 
---------
Guit. 2 (special effect)
  F#maj7               Emaj7      
e|--------------------|---------------|
B|--------------------|---------------|
G|-10-10------10------|-8-8-----8-----|
D|-11----11------11---|-9---9-----9---|
A|-9--------9-------9-|-7-----7-----7-|
E|--------------------|-0-------------|


  F#maj7               Emaj7                      
e|--------------------|---------------------------------|
B|--------------------|---------------------------------|
G|-10-10------10------|-8-8-8-8-8-8-8-8-8-8-8-8-8-8-8-8-|
D|-11----11------11---|-9-9-9-9-9-9-9-9-9-9-9-9-9-9-9-9-|
A|-9--------9-------9-|-7-7-7-7-7-7-7-7-7-7-7-7-7-7-7-7-|
E|--------------------|-0-0-0-0-0-0-0-0-0-0-0-0-0-0-0-0-|


  F#maj7  Emaj7  F#maj7 Emaj7      
e|-------|------|------|---------------------------------|
B|-------|------|------|---------------------------------|
G|-10-10-|-8----|-10---|-8-8-8-8-8-8-8-8-8-8-8-8-8-8-8-8-|
D|-11----|-9----|-11---|-9-9-9-9-9-9-9-9-9-9-9-9-9-9-9-9-|
A|-9-----|-7----|-9----|-7-7-7-7-7-7-7-7-7-7-7-7-7-7-7-7-|
E|-------|-0----|------|-0-0-0-0-0-0-0-0-0-0-0-0-0-0-0-0-|


Lyrics
------
(moxa aru está en tu cama)  
una vez más estoy aquí es como un trance
y todo estos borregos que ni intenten alcanzarme 
desde la oscuridad saco un alma dorada 
que la planto como si nada sobre esta vida aguada 
siente la fuerza de moxa aru que te invade 
atravesando despacio tu mente al fin se abre 
y deja entrar la fuerza de mi rima 
que poco a poco te cambiará la vida 

no sé por qué pero hoy me siento poderoso 
no sé por qué pero hoy me siento peligroso 

tomo el micrófono en mi mano izquierda 
atravieso el umbral de mis proezas 
y mis pasos se hacen cada vez más pesados 
arranco un poco más de mi ser 
y encuentro un pedazo del vacío 
que inunda mis ganas de vencer 
y trabajo lento pero estoy seguro 
estoy seguro de lo que quiero hacer
Suggest correction
Give kudos to tab author, rate the tab!
1 2 3 4 5
comments
print report bad tab
guest
You may want to rate the tab now too:
select rating
Wanna post a correction for this tab? Suggest correction