Oops, an error
Loading. Please wait.

Midnight Train To Bellevue tab

version 1
version 1

Whole song

Interactive

5,287 views 1 this week
5 commentsread comments
1 2 3 4 5
x 4
add to favorites
×
Save as Personal and add changes to this tab that will be seen only by you. Learn more ›
×
You can save this tab as Personal to edit and correct it or add notes. All changes will be seen only by you. Learn more »
launch autoscroll
font size
0
reset
how to read this tab
guitar tuner
edit
Autoscroll
slow
fast
+/-
esc
set tempo
stop
Author
Difficulty
first tab=]
email if you find something wrong and u want to cuss me out.
enjoy.

Tuning : Drop D (D A D G B E)

(first guitar)
e---------------------------------------------------|
b-------------13----------------------13------------|
g-9p-10-9p-10-----9-10-9--9p-10-9p-10----9-10-9-----|
d---------------------------------------------------| until pre verse
a---------------------------------------------------|
d---------------------------------------------------|

(second guitar) wait for timing
e---------------------------------------------------|
b---------------------------------------------------|
g---------------------------------------------------|
d-0~--8~--10~---------------------------------------|
a-0~--8~--10~---------------------------------------|
d-0~--8~--10~---------------------------------------|
second time through
e---------------------------------------------------|
b---------------------------------------------------|
g---------------------------------------------------|
d-0~--8~--7-~---------------------------------------|
a-0~--8~--7-~---------------------------------------|
d-0~--8~--7-~---------------------------------------|

(first guitar)
e---------------------------------------------------|
b-10---------10-------------------------------------|
g----10-9-10----10-9-10-----------------------------|
d---------------------------------------------------|
a---------------------------------------------------|
d---------------------------------------------------|

SCREAMS

(second guitar) figure out strumming.
e---------------------------------------------------|
b---------------------------------------------------|
g---------------------------------------------------|
d-0--8--10----0--8--7-------------------------------|
a-0--8--10----0--8--7-------------------------------|
d-0--8--10----0--8--7-------------------------------|

(first guitar)

e---------------------------------------------------|
b-------------13----------------------13------------|
g-9p-10-9p-10-----9-10-9--9p-10-9p-10----9-10-9-----|
d---------------------------------------------------|
a---------------------------------------------------|
d---------------------------------------------------|

e---------------------------------------------------|
b-------------13---10------10-----------------------|
g-9p-10-9p-10---------9-10----9-10------------------|
d---------------------------------------------------|
a---------------------------------------------------|
d---------------------------------------------------|

second time through
e---------------------------------------------------|
b-------------13----------------------13------------|
g-9p-10-9p-10-----9-10-9--9p-10-9p-10----9-10-9-----|
d---------------------------------------------------|
a---------------------------------------------------|
d---------------------------------------------------|

e-----------------------------------------------------------|
b-------------13--10---------10-----------------------------|
g-9p-10-9p-10--------10-9-10----10-9-10*-..............-----|
d-----------------------------------------------------------|
a-----------------------------------------------------------|
d-----------------------------------------------------------|

then
(second guitar)

e---------------------------------------------------|
b---------------------------------------------------|
g---------------------------------------------------|
d-0----8----10--------------------------------------| repeat
a-0----8----10--------------------------------------|
d-0----8----10--------------------------------------|
PM PM PM


then
(first guitar)
e---------------------------------------------------|
b-13-12---------------------------------------------|
g-------10------------------------------------------|
d---------------------------------------------------|
a---------------------------------------------------|
d---------------------------------------------------|

same rhytm as second guitar
e---------------------------------------------------|
b---------------------------------------------------|
g--------------------------10-9---------------------|
d--10-12-10-12-10-12-10-12------10*-----------------|
a---------------------------------------------------|
d---------------------------------------------------|
(repeat this until "LIKE YOU NEVER")


e---------------------------------------------------|
b-------------13----------------------13------------|
g-9p-10-9p-10-----9-10-9--9p-10-9p-10----9-10-9-----|
d---------------------------------------------------|
a---------------------------------------------------|
d---------------------------------------------------|
("LIKE YOU NEVER")


(second guitar)

e---------------------------------------------------|
b---------------------------------------------------|
g---------------------------------------------------|
d-0----8----10--------------------------------------| repeat
a-0----8----10--------------------------------------|
d-0----8----10--------------------------------------|
PM PM PM

then back to
same rhytm as second guitar
e---------------------------------------------------|
b---------------------------------------------------|
g--------------------------10-9---------------------|
d--10-12-10-12-10-12-10-12------10*-----------------|
a---------------------------------------------------|
d---------------------------------------------------|

e---------------------------------------------------|
b---------------------------------------------------|
g---------------------------------------------------|
d-0----8----10--------------------------------------| repeat
a-0----8----10--------------------------------------|
d-0----8----10--------------------------------------|
PM PM PM

e---------------------------------------------------|
b-------------13----------------------13------------|
g-9p-10-9p-10-----9-10-9--9p-10-9p-10----9-10-9-----|
d---------------------------------------------------|
a---------------------------------------------------|
d---------------------------------------------------|


BREAKDOWN
find rhythm
(ARRRGH!)
e---------------------------------------------------|
b---9--9--9------9--9--9------9--9--9---------------|
g---12-12-12-----12-12-12-----12-12-12--------------|
d-0------------8-----------10-----------------------| x's 2
a-0------------8-----------10-----------------------|
d-0------------8-----------10-----------------------|
PM PM PM *SHRED IT!*

----------------------PIANO-------------------------

Chorus.
(first guitar)
e---------------------------------------------------|
b-------------13----------------------13------------|
g-9p-10-9p-10-----9-10-9--9p-10-9p-10----9-10-9-----|
d---------------------------------------------------|
a---------------------------------------------------|
d---------------------------------------------------|
repeat.
(second guitar)find strumming
e---------------------------------------------------|
b---------------------------------------------------|
g---------------------------------------------------|
d-0~--8~--10~---------------------------------------|
a-0~--8~--10~---------------------------------------|
d-0~--8~--10~---------------------------------------|

....(first guitar)
e-----------------------------------------------------------|
b-------------13--10---------10-----------------------------|
g-9p-10-9p-10--------10-9-10----10-9-10*-..............-----|
d-----------------------------------------------------------|
a-----------------------------------------------------------|
d-----------------------------------------------------------|


post chorus.
(first guitar)
e------------------------------------------------------|
b------------------------------------------------------|
g-----------9-10-12-10-9-10---9-10-9---9-10------------|
d-------------------------------------------10---------|
a------------------------------------------------------|
d------------------------------------------------------|
.together.
(second guitar) TIME IT
e------------------------------------------------------|
b------------------------------------------------------|
g------------------------------------------------------|
d-0-----0-0--------------------------------------------|
a-0-----0-0--------------------------------------------|
d-0-----0-0--------------------------------------------|

then second guitar joins
(second guitar) PLAY WITH FIRST/SECOND HAS PINCH HARMONICS
e-----------------------------------------------------|
b-----------------------------------------------------|
g-----------------------------------------------------|
d-0----0-0-----10-10-10-10-10-------------------------|
a-0----0-0-------------------10-----------------------|
d-0----0-0--------------------------------------------|


e-----------------------------------------------------|
b-----------------------------------------------------|
g----------9-10-9*------------------------------------|
d-0----0-0--------------------------------------------|
a-0----0-0--------------------------------------------|
d-0----0-0--------------------------------------------|


e-----------------------------------------------------|
b-----------------------------------------------------|
g----------9-10---------------------------------------|
d-0----0-0------10*-----------------------------------|
a-0----0-0--------------------------------------------|
d-0----0-0--------------------------------------------|

...repeat through screams...

ADD BENDS WITH THE HARMONICS
*SHRED IT*

then it leaves guitar and cymbals

e-----------------------------------------------------|
b-----------------------------------------------------|
g-----------------------------------------------------|
d-0----0-0--------------------------------------------|
a-0----0-0--------------------------------------------|
d-0----0-0--------------------------------------------|

e-----------------------------------------------------|
b-----------------------------------------------------|
g-------9b*-------------------------------------------|
d-0-0---10b*---------------8--10----------------------|
a-0-0----------------------8--10----------------------|
d-0-0----------------------8--10----------------------|
PM PM PM PM


-----CHORUS------


outro..
(first guitar)
e-----------------------------------------------------|
b-----------------------------------------------------|
g------------9-9-9-9-9-9-9-9-9------------------------|
d-0----0-0--------------------------------------------|
a-0----0-0--------------------------------------------|
d-0----0-0--------------------------------------------|

(second guitar) at same time
e-----------------------------------------------------|
b-----------------------------------------------------|
g------------10-10-10-10-10-10-10-10------------------|
d-0----0-0--------------------------------------------|
a-0----0-0--------------------------------------------|
d-0----0-0--------------------------------------------|


e-----------------------------------------------------|
b-----------------------------------------------------|
g-----------------------------------------------------|
d-0----0-0--------------------------------------------|
a-0----0-0--------------------------------------------|
d-0----0-0--------------------------------------------|



wooh. Mozart Season is a great band. I'm surprised no one has tabbed them/

IM - CyaNidexLandMine EMAIL - dakrayzieaznboi@msn.com
please tell me if u liked it on not=]

http://mozartseason.com/

            
            
Suggest correction
Creating personal tab
Creating personal tab
You can edit any tab online and save it as your Personal.

You can edit, replace or remove any tab part or add personal notes – all changes will be seen only by you.

Personal tabs can be accessed anytime from any device, even offline.
Learn more »
comments
print report bad tab
5 comments total. Showing first comments.
0 reply
PVAM 10 Mar 24, 2007 12:14 PM

nice tab to bad they broke up tho

0 reply
pips 10 Dec 07, 2007 06:36 AM

sounds perfect!!! thanx for tabbing!!!

0 reply
ski8ah 10 Jul 02, 2008 09:43 PM

Nice tab but if you listen carefully..
there are still some missing parts but great job :)

guest
You may want to rate the tab now too:
select rating
Wanna post a correction for this tab? Suggest correction