Oops, an error
Loading. Please wait.

Streetlight Contagious intro tab

version 1
version 1

Intro

2,466 views 3 this week
3 commentsread comments
1 2 3 4 5
x 3
add to favorites
×
Save as Personal and add changes to this tab that will be seen only by you. Learn more ›
×
You can save this tab as Personal to edit and correct it or add notes. All changes will be seen only by you. Learn more »
launch autoscroll
font size
0
reset
how to read this tab
guitar tuner
edit
Autoscroll
slow
fast
+/-
esc
set tempo
stop
Author
Difficulty
Song:Streetlight Contagious
Band:Mozart Season

This is my first tab..

Standard Tuning

|------------------------|
|---------7---10-10---7--|
|-----7-7---7-------7----|  Repeat many times.. Till the verse starts.
|------------------------|
|------------------------|
|------------------------|
Suggest correction
Creating personal tab
Creating personal tab
You can edit any tab online and save it as your Personal.

You can edit, replace or remove any tab part or add personal notes – all changes will be seen only by you.

Personal tabs can be accessed anytime from any device, even offline.
Learn more »
Give kudos to tab author, rate the tab!
1 2 3 4 5
comments
print report bad tab
3 comments total.
0 reply
halftempted 10 May 31, 2007 05:06 PM

Its pretty good. I know how to play the full song :) too lazy to post lol

0 reply
xionz802 30 Dec 01, 2007 09:19 AM

ohh..pretty please post it..

0 reply
Sexbo 10 Apr 23, 2008 07:42 PM

|--------------0-----------|--------------5-----------|
|--------7--------7-----7--|--------7--------5-----5--|
|--7--7-----7--------7-----|--7--7-----7--------7-----|
|--------------------------|--------------------------|
|--------------------------|--------------------------|
|--------------------------|--------------------------|

Should be like this. (:

guest
You may want to rate the tab now too:
select rating
Wanna post a correction for this tab? Suggest correction