Oops, an error
Loading. Please wait.

A Little Too Loose Tab

3,642 views 24 this week
2 commentsread comments
1 2 3 4 5
excellent!
x 4
add to favorites
launch autoscroll
font size
0
reset
how to read this tab
guitar tuner
Autoscroll
slow
fast
+/-
esc
set tempo
stop
Help us to improve Ultimate-Guitar.com Take our survey!
×
Author
Difficulty
intermediate
-------------------------------------------------------------------------------
                             A LITTLE TOO LOOSE - Mr. Big
-------------------------------------------------------------------------------
Tabbed by: Mike Fowler
Email: icemike_3@hotmail.com

Tuning:  DGCFAD

Intro/Verse:

e|-------0----------0---------0----------0------0-----0---------0--------------|
B|-----0---0--0---0--0--0---0--0--0---0------0------0--0--0---0--------0-------|
G|---9------9---7-----7---6-----6---3------4------2------2---0-------0---------|
D|------------------------------------------------------------------1----------|
A|-----------------------------------------------------------------------------|
E|-----------------------------------------------------------------------------|

e|--------0---------------------------------------------------------------------|
B|------3---3-------------------------------------------5-----------------------|
G|----4-------4-----------------------------------------4-----------------------|
D|--2-----------2--------9--8--9---5-----------5-------2------------------------|
A|-----------------------7--7--7------7--5--7-----7----2------------------------|
E|------------------------------------------------------0-----------------------|

e|-----------------------------------------3------------------------------------|
B|-----------------------------------------3-------------5----------------------|
G|-----------------------------------------0----2--------4----------------------|
D|--9--8--9---5-----------5---------------0----2----2---2-----0h2--0------------|
A|--7--7--7------7--5--7-----7------5-7--------0----2---2------------2----2-----|
E|---------------------------------------------------0---0--------------3--0----|

e|----3------------------------------------|
B|----3-------------5----------------------|
G|---0----2--------4-----------------------|
D|---0----2----2---2-----0h2--0------------|
A|--------0----2---2------------2----2-----|
E|-------------0---0--------------3--0-----|

Chorus:

e|-------------------------0---3--0---3--0---3--0---------------------------|
B|----10--12---8-------3--0---3--0---3--0---3--0----------------------5-----|
G|----9---9----7--9~~--2----------------------------------------------4-----|
D|-----------------------------------------------------2p0------------2-----|
A|----------------------------------------------------------2---------2-----|
E|-------------------------------------------------------------3--0---0-----|

e|-----------------------------------------------------------------------------|
B|---------------5------5---------3--------------------------------------------|
G|---------------4------4---------2-------2-----5-----7------------------------|
D|-------2-------2------2---------0-------2-----5-----7------------------------|
A|---5---0---2---2------2---------0-------0-----3-----5------------------------|
E|---3-------0---0------0------------------------------------------------------|

Fill #1

e|---12-10-7-----------------------------------------|
B|------------11-10-8--------------------------------|
G|--------------------9-7----------------------------|
D|------------------------9-8-7----------------------|
A|------------------------------10-7-5---------------|
E|--------------------------------------7-6-5-3-0----|

Solo:

e|--------------------------------|
B|--------------------------------|
G|--------------------------------|
D|-----14-14-12-14-14-12----------|    x7
A|--------------------------------|
E|--------------------------------|

e|-----------------------------------------------------------------------------|
B|-----------------------------------------------------------------------------|
G|--12~~~---14-12----14-12----14-12----14-12----14-11---14-11------------------|
D|-----------------12-------12-------12-------12-------12------12--------------|
A|-----------------------------------------------------------------------------|
E|-----------------------------------------------------------------------------|

e|--------------------------------------------10-------------------------------|
B|----------------------/15~~----------10-/12----------------------------------|
G|---14-11---14-11-------------12--/12----------/14-12-------------------------|
D|---------12------12-------/14-------------------------14---------------------|
A|-----------------------------------------------------------------------------|
E|-----------------------------------------------------------------------------|

e|-----------------------------------------------------------------------------|
B|---15b17---15~~~--14b15-15r14--12-----12---12--12----12--14b15-15r14~~-------|
G|------------------------------------15------13------15-----------------------|
D|-----------------------------------------------------------------------------|
A|-----------------------------------------------------------------------------|
E|-----------------------------------------------------------------------------|

                       Trem pick.......................................................................
e|-----------------------------------------------------------------------------|
B|--15~~~~---15-15-15-15-15-17-17-17-17-17-20-20-20-20-20----------------------|
G|-----------------------------------------------------------------------------|
D|-----------------------------------------------------------------------------|
A|-----------------------------------------------------------------------------|
E|-----------------------------------------------------------------------------|

                                                                                         
                 Trem pick
e|-----19h22p19----19h22p19----19h22p19---19h22p19------22b44-----~~~~---------|
B|---------------22----------22----------22-----------22-----------------------|
G|-----------------------------------------------------------------------------|
D|-----------------------------------------------------------------------------|
A|-----------------------------------------------------------------------------|
E|-----------------------------------------------------------------------------|

e|-----------------------------------------------------------------------------|
B|---------------------------------9--10--9------3---3---3---3-----------------|
G|----6---6--6--6--6--------------9--9---9------2---2---2---2------------------|
D|----6---6--6--6--6----2--2------9--9---9------0---0---0---0------------------|
A|----4---4--4--4--4----2--2--------------------0---0---0---0------------------|
E|-----------------------0--0--------------------------------------------------|

e|------------------------------------------|
B|------------------------------------------|
G|-----------------------2----4-------------|
D|---2---2--2-------5---2----4--------------|
A|---2---2--2-------5---0----2--------------|
E|---0---0--0-------3-----------------------|

Outro:

e|-------0----------0---------0----------0------0-----0---------0--------------|
B|-----0---0--0---0--0--0---0--0--0---0------0------0--0--0---0--------0-------|
G|---9------9---7-----7---6-----6---3------4------2------2---0-------0---------|
D|------------------------------------------------------------------1----------|
A|-----------------------------------------------------------------------------|
E|-----------------------------------------------------------------------------|

                             harmonics........
e|--------0----------------12----|
B|------3------------12----------|
G|----4---------12---------------|
D|--2----------------------------|
A|-------------------------------|
E|-------------------------------|

Another great Mr Big tune.  Listen for the timings and enjoy.


| /  slide up
| \  slide down
| h  hammer-on
| p  pull-off
| ~  vibrato
| +  harmonic
| x  Mute note
===============================================================================
Suggest correction
comments
print report bad tab
2 comments total.
0 reply
shredder_666 341 wrote on November 10 2006, 10:26 am

good job man...this sounds really good.

0 reply
shredder_666 341 wrote on November 10 2006, 10:28 am

i just looked at your other tabs...racer x and mr big. You must be a big Paul Gilbert fan.

guest
You may want to rate the tab now too:
select rating
Please do not post tabs as comments. Select "correction" instead!