Oops, an error
Loading. Please wait.

Aint Seen Love Like That tab

version 2
version 2

Whole song

Interactive

by Mr. Big
5,482 views 12 this week
no commentswrite comment
1 2 3 4 5
1 last vote to show rating
add to favorites
×
Save as Personal and add changes to this tab that will be seen only by you. Learn more ›
×
You can save this tab as Personal to edit and correct it or add notes. All changes will be seen only by you. Learn more »
launch autoscroll
font size
0
reset
how to read this tab
guitar tuner
edit
Autoscroll
slow
fast
+/-
esc
set tempo
stop
Author
Difficulty
         Mr.Big - AIN'T SEEN LOVE LIKE THAT
   

[Intro]

  S S S S S S  S S S S S S S S S S   S S S S S S  S S S S S S S S E
E||-7-----8-----10-----8-----7-------|-7-----8-----10-----8-----7-----|
B||---8-----8------8-----8-----8---8-|---8-----8------8-----8-----8---|
G||-----0-----0------0-----0-----0---|-----0-----0------0-----0-----0-|
D||----------------------------------|--------------------------------|
A||----------------------------------|--------------------------------|
E||----------------------------------|--------------------------------|


  S S S S S S  S S S S S S S S E   E S S S S E
|-7-----8-----10-----8-----7-----|-8---8-----3-|
|---3-----5------7-----5-----3---|-6p5-----3-3-|
|-----0-----0------0-----0-----0-|-0-0---0---0-|
|--------------------------------|-----------0-|
|--------------------------------|-------------|
|--------------------------------|-------------|


                           C     G/B    Am            G
  +W           Q.   S S    E E E Q  E E E   +E  E E E S S E E S S
|-(3)--------|----------||----------------|---------------3-3-----|
|-(3)--------|----------||----------------|-----1-----0-0-3-3-----|
|-(0)--------|----------||-----0------0---|-------2---0-0-0-0-----|
|-(0)--------|----------||---2------0-----|---------2-0-0-0-0-----|
|------------|------0-2-||-3-----2------0-|-(0)---------------0-2-|
|------------|----------||----------------|---------------3-3-----|
                          I've been miles from nowhere

  C     G/B    Am            G             C     Em
  E E E Q  E E E   +E  E E E S S E E S S   E S S S S E +E  S S E S S
|----------------|---------------3-3-----|-0-0-0-----0-(0)-0-0-0-----|
|----------------|-----1-----0-0-3-3-----|-1-1-1-0-0-0-(0)-0-0-0-0-0-|
|-----0------0---|-------2---0-0-0-0-----|-0-0-0-0-0-0-(0)-0-0-0-0-0-|
|---2------0-----|---------2-0-0-0-0-----|-2-2---0-0-2-(2)---2-2-0-0-|
|-3-----2------0-|-(0)---------------0-2-|-3---------2-(2)-----2-----|
|----------------|---------------3-3-----|-----------0-(0)-----0-----|
Crossed and doubled back                  Time is a healer

  Fsus2     Dm7            Eb      Dm7         C
  E S S S S E +S  S E Q    E S S E E +E  E S S E   +E   S S Q   E S S  E S S
|-1-1-1-x-x-1-(1)-1-1-1--|-3-3-3-3-1-(1)-1-x-x-0-|-(0)--0-0-0---0-0-0--0------||
|-1-1-1-x-x-1-(1)-1-1-1--|-4-4-4-4-1-(1)-1-x-x-1-|-(1)--1-1-1---1-1-1--1------||
|-0-0-0-x-x-2-(2)-2-2-2--|-3-3-3-3-2-(2)-2-x-x-0-|-(0)--0-0-0---0-0-0--0------||
|-3-3-3-x-x-0-(0)-0-0-0--|-1-1-1-1-0-(0)-0-x-x-2-|-(2)--2-2-2---2-2-2--2------||
|-------x-x--------------|-----------------x-x-3-|-(3)--3-3-3---3-3-3--3-0-2--||
|-1-1-1-x-x--------------|-----------------------|----------------------------||
And I've done my time    Cause I ain't seen love like that

  C       G/B     Am            G
   E  E E Q   E E E   +E  E E E S S E   E S S
|-------------------|---------------3---3-----|
|-------------------|-----1-----0-0-3---3-----|
|-------0-------0---|-------2---0-0-0---0-----|
|-----2-------0-----|---------2-0-0-0---0-----|
|--3------2-------0-|-(0)-----------------0-2-|
|-------------------|---------------3---3-----|
I've seen the light of freedom
I believe in justice

  C      G/B       Am            G
  E  E E Q     E E E   +E  E E E S S E   E   S S
|--------------------|---------------3---3---------|
|--------------------|-----1-----0-0-3---3---------|
|------0---------0---|-------2---0-0-0---0---------|
|----2---------0-----|---------2-0-0-0---0---------|
|-3------2---------0-|-(0)-------------------0-2---|
|--------------------|---------------3---3---------|
|
|                       H        E   S S S S S S
|--------------------|-----------------------------|
|--------------------|-----------------------------|
|--------------------|-------------------0-2-------|
|--------------------|---------------0-2-----0-2---|
|--------------------|-----------------------------|
|--------------------|-----------------------------|
Dim and fade to black
I wonder where's she's at

  C     Em                    Fsus2     Dm7
  E S S S S E +E  S S E S S   E S S S S E +S  S E Q
|-0-0-0-----0-(0)-0-0-0-----|-1-1-1-x-x-1-(1)-1-1-1-----|
|-1-1-1-0-0-0-(0)-0-0-0-0-0-|-1-1-1-x-x-1-(1)-1-1-1-----|
|-0-0-0-0-0-0-(0)-0-0-0-0-0-|-0-0-0-x-x-2-(2)-2-2-2-----|
|-2-2---0-0-2-(2)---2-2-0-0-|-3-3-3-x-x-0-(0)-0-0-0-----|
|-3---------2-(2)-----2-----|-------x-x-----------------|
|-----------0-(0)-----0-----|-1-1-1-x-x-----------------|
So many faces,              but no one compares
It feels like a lifetime,   And it just ain't fair

  Eb       Dm7         C
  E  S S E E +E  E S S E   +E  S S Q       E   S S E   S S
|-3--3-3-3-1-(1)-1-x-x-0-|-(0)-0-0-0-------0---0-0-0---0-0---||
|-4--4-4-4-1-(1)-1-x-x-1-|-(1)-1-1-1-------1---1-1-1---1-1---||
|-3--3-3-3-2-(2)-2-x-x-0-|-(0)-0-0-0-------0---0-0-0---0-0---||
|-1--1-1-1-0-(0)-0-x-x-2-|-(2)-2-2-2-------2---2-2-2---2-2---||
|------------------x-x-3-|-(3)-3-3-3-------3---3-3-3---3-3---||
|------------------------|-----------------------------------||
|
|                           E  S S S S S S S S S S S S S S
|------------------------|-----1-0---------------------------||
|------------------------|---------3-1-----------------------||
|------------------------|-------------2-0---------------0---||
|------------------------|-----------------3-2-0---0-2-3-----||
|------------------------|-----------------------3-----------||
|------------------------|-----------------------------------||
No, I ain't seen love like that                       And I got 
No I ain't seen love like that                        And I got 


[Bridge]
  F                     C                     F      C
  E. S E E. S E E S S   E. S E E. S E E S S   E. S E E. S E E S S
|-1--1-1-1--1-1-1-1-1-|-0--0-0-0--0-0-0-0-0-|-1--1-1-0--0-0-0-x-x-|
|-1--1-1-1--1-1-1-1-1-|-1--1-1-1--1-1-1-1-1-|-1--1-1-1--1-1-1-x-x-|
|---------------------|-0--0-0-0--0-0-0-0-0-|--------0--0-0-0-x-x-|
|-3--3-3-3--3-3-3-3-3-|-2--2-2-2--2-2-2-2-2-|-3--3-3-2--2-2-2-x-x-|
|-0--0-0-0--0-0-0-0-0-|-3--3-3-3--3-3-3-3-3-|-0--0-0--------------|
|-1--1-1-1--1-1-1-1-1-|---------------------|-1--1-1--------------|
people telling me to let her go             Don't let it   turn you 
people tellin' me to let her go             That girl is bringin' you 
people telling me to let her go             Dont' let it turn you 

  Dsus4   D                    F                        C
  E S S S S E +S  E. S S S S   E. S E E +S  S E E S S   E. S E E. S E Q
|-3-3-3---2-2-(2)-2--2-2-x-x-|-1--1-1-1-(1)-1-1-1-1-1-|-0--0-0-0--0-0-0---|
|-3-3-3---3-3-(3)-3--3-3-x-x-|-1--1-1-1-(1)-1-1-1-1-1-|-1--1-1-1--1-1-1---|
|-2-2-2---2-2-(2)-2--2-2-x-x-|------------------------|-0--0-0-0--0-0-0---|
|-0-0-0---0-0-(0)-0--0-0-x-x-|-3--3-3-3-(3)-3-3-3-3-3-|-2--2-2-2--2-2-2---|
|----------------------------|-0--0-0-0-(0)-0-0-0-0-0-|-3--3-3-3--3-3-3---|
|----------------------------|-1--1-1-1-(1)-1-1-1-1-1-|-------------------|
around                        Tomorrow's comin' and     you'll never know
down                          Tomorrow's comin' And     you'll never know
around                        Tomorrow's comin' and     you'll never know
                                                         
                                        
  Bbsus2                     Bbsus2                      C     G/B    Am
  E. S E E +S  S S S E S S   E. S E E +S  E S S S S S    E E E Q  E E E
|-1--1-1-1-(1)-1-1-1-1-1-1-|-1--1-1-1-(1)-1-1-x-x-----||-----------------|
|-1--1-1-1-(1)-1-1-1-1-1-1-|-1--1-1-1-(1)-1-1-x-x-----||-----------------|
|-3--3-3-3-(3)-3-3-3-3-3-3-|-3--3-3-3-(3)-3-3-x-x-----||-----0------0----|
|-3--3-3-3-(3)-3-3-3-3-3-3-|-3--3-3-3-(3)-3-3-x-x-----||---2------0------|
|-1--1-1-1-(1)-1-1-1-1-1-1-|-1--1-1-1-(1)-1-1-x-x-0-2-||-3-----2------0--|
|--------------------------|--------------------------||-----------------|
The one that you lost may be found
The love that you lost may be found               [to Solo]
The love that you lost may be found

[Solo]
   C           G/B             Am
  E   E   E   Q       E   E   E     +E    E   E E  S  S E   E S S
|---------------------------------|---------------------3---3-----|
|---------------------------------|-------1--------0--0-3---3-----|
|---------0---------------0-------|-----------2----0--0-0---0-----|
|-----2---------------0-----------|-------------2--0--0-0---0-----|
|-3-----------2---------------0---|-(0)-----------------------0-2-|
|---------------------------------|---------------------3---3-----|
|
| S S S S S S S S S S S S S S S S    S  S S S Q   +E    E   Q
|-8-----8-----7-----7-----7---5---|-----------5---(5)-------------|
|---5-----5-----3-----3---------5-|---------5---------------------|
|-----0-----0-----0-----0---------|--5----5-----------------------|
|---------------------------------|-----7-------------------------|
|---------------------------------|-------------------------------|
|---------------------------------|-------------------------------|

  C G      G/B                 Am
  E    E   E    Q          E    E   E
|---------------------------------------|
|---------------------------------------|
|----------0--------------------0-------|
|------2-------------------0------------|
|-3-------------2-------------------0---|
|---------------------------------------|
|
| S  S S S S S  S S  S   S S S  S S S S
|-8------8-----10-------10-----10---8p5-|
|----5-----5------8--------8------------|
|------0-----0-------0-------0----0-----|
|---------------------------------------|
|---------------------------------------|
|---------------------------------------|

                G                   C       Em
  +E    E   E E  S  S E   E   S S   E   S S S S E   +E    S S E  S  S
|---------------------3---3-------|-0---0-0-----0---(0)---0-0-0-------|
|-------1--------0--0-3---3-------|-1---1-1-0-0-0---(0)---0-0-0--0--0-|
|-----------2----0--0-0---0-------|-0---0-0-0-0-0---(0)---0-0-0--0--0-|
|-------------2--0--0-0---0-------|-2---2---0-0-2---(2)-----2-2--0--0-|
|-(0)-------------------------0-2-|-3-----------2---(2)-------2-------|
|---------------------3---3-------|-------------0---(0)-------0-------|
|
|  H             E    S S S S S S   Q       Q        H
|---------------------------------|-----------------------------------|
|---------------------------------|-----------------------------------|
|-------------------------0-2-----|-0---------------------------------|
|---------------------0-2-----0-2-|-----------------------------------|
|---------------------------------|-----------------------------------|
|---------------------------------|-----------------------------------|
|
|  S  S S S Q   +E    E   Q         S S S S S S S S  S  S S S E.    S
|---------------------------------|-8-----8-----7-------7-----7-------|
|--5--------5---(5)---------------|---5-----5-----8-------8-----------|
|-----5---5-----------------------|-----0-----0------0------0------10-|
|-------7-------------------------|-----------------------------------|
|---------------------------------|-----------------------------------|
|---------------------------------|-----------------------------------|


  Fsus2          Dm7
  E     S S  S S E   +S  S E   Q
|-1-----1-1--x-x-1---(1)-1-1---1-------|
|-1-----1-1--x-x-1---(1)-1-1---1-------|
|-0-----0-0--x-x-2---(2)-2-2---2-------|
|-3-----3-3--x-x-0---(0)-0-0---0-------|
|------------x-x-----------------------|
|-1-----1-1--x-x-----------------------|
|
|
| S  S  S S  S S S S  S  S S S S S S S
|-8-------8------5-------5-----5-------|
|---10------10-----6-------6-----6-----|
|------10-------------5------5-----5---|
|--------------------------------------|
|--------------------------------------|
|--------------------------------------|

                                                                 [to Bridge]
  Eb           Dm7               C
  E    S S E   E   +E    E   S S E   +E  S  S Q       E   S S E   S S
|-3----3-3-3---1---(1)---1---x-x-0-|-(0)-0--0-0-------0---0-0-0---0-0---||
|-4----4-4-4---1---(1)---1---x-x-1-|-(1)-1--1-1-------1---1-1-1---1-1---||
|-3----3-3-3---2---(2)---2---x-x-0-|-(0)-0--0-0-------0---0-0-0---0-0---||
|-1----1-1-1---0---(0)---0---x-x-2-|-(2)-2--2-2-------2---2-2-2---2-2---||
|----------------------------x-x-3-|-(3)-3--3-3-------3---3-3-3---3-3---||
|----------------------------------|------------------------------------||
|
| Q.           E   +Q.           E    E  S  S S S S S S S S S S S S S
|----------------------------------|-----1--0---------------------------||
|----------------------------------|----------3-1-----------------------||
|----------------------------------|--------------2-0---------------0---||
|-1------------0---(0)-------------|------------------3-2-0---0-2-3-----||
|--------------------------------3-|------------------------3-----------||
|----------------------------------|------------------------------------||
|
| S  S S S S S S S  S  S S S S S E   +E  H.                       E
|-8------8-8---8---------8-------8-|-(8)--------------------------------||
|------8---------6-----6---6-----5-|-(5)--------------------------------||
|----8--------------7--------7---5-|-(5)--------------------------------||
|----------------------------------|------------------------------------||
|----------------------------------|------------------------------------||
|----------------------------------|------------------------------------||
                                                           You know that

  C     G/B     Am
  E E E E E E E E   E E E E E E E S S
|-----------------|-------0-----------|
|-------------3---|---1-----1---------|
|-----0-----0-----|-----------2-------|
|---2-----0-------|-2---2-------2-----|
|-3-----2-------0-|---------------0-2-|
|-----------------|-------------------|
I've been miles   from nowhere

  C     G/B     Am              G
  E E E E E E E E   E E E E +E  E E S S
|-----------------|-------0-(0)-3-3-------|
|-------------3---|-----1-------3-3-0-0---|
|-----0-----0-----|---2---------0-0-0-0---|
|---2-----0-------|-2-----------0-0-0-0---|
|-3-----2-------0-|-----------------------|
|-----------------|-------------3-3-------|
Crossed and    doubled back

  C       Em                  Fsus2     Dm7
  E S S S S E +S  S E E S S   E S S S S E +S  S E Q
|-0-0-0-0-0-0-(0)-0-0-0-----|-1-1-1-x-x-1-(1)-1-1-1-----|
|-1-1-1-1-0-0-(0)-0-0-0-0-0-|-1-1-1-x-x-1-(1)-1-1-1-----|
|-0-0-0-0-0-0-(0)-0-0-0-0-0-|-0-0-0-x-x-2-(2)-2-2-2-----|
|-2-2-2-2-2-2-(2)-2-2-2-0-0-|-3-3-3-x-x-0-(0)-0-0-0-----|
|-3-3-3-3-2-2-(2)-2-2-2-----|-------x-x-----------------|
|---------0-0-(0)-0-0-0-----|-1-1-1-x-x-----------------|
Time is a healer             And I've done my time

  Eb       Dm7         C
  E  S S E E +E  E S S E   +E  S S Q  E  S S E S S
|-3--3-3-3-1-(1)-1-x-x-0-|-(0)-0-0-0--0--0-0-0-------|
|-4--4-4-4-1-(1)-1-x-x-1-|-(1)-1-1-1--1--1-1-1-------|
|-3--3-3-3-2-(2)-2-x-x-0-|-(0)-0-0-0--0--0-0-0-------|
|-1--1-1-1-0-(0)-0-x-x-2-|-(2)-2-2-2--2--2-2-2-------|
|------------------x-x-3-|-(3)-3-3-3--3--3-3-3-0-2---|
|------------------------|---------------------------|
No I ain't seen love like that

  Eb     Dm7         C                             Eb       Dm7         C
  E  E E E +E  E S S E   +E   S S Q  E S S E E     E  E S S E +E  E S S E
|-3--3-x-1-(1)-1-x-x-0-|-(0)--0-0-0--0-0-0-0-0---|-3--3-3-3-1-(1)-1-1-1-0--|
|-4--4-x-1-(1)-1-x-x-1-|-(1)--1-1-1--1-1-1-1-1---|-4--4-4-4-1-(1)-1-1-1-1--|
|-3--3-x-2-(2)-2-x-x-0-|-(0)--0-0-0--0-0-0-0-0---|-3--3-3-3-2-(2)-2-2-2-0--|
|-1--1-x-0-(0)-0-x-x-2-|-(2)--2-2-2--2-2-2-2-2---|-1--1-1-1-0-(0)-0-0-0-2--|
|--------------------3-|-(3)--3-3-3--3-3-3-3-3---|----------------------3--|
|----------------------|-------------------------|-------------------------|
No I ain't seen love like that      So many faces, (ain't seen love like that)

  +E  E   Q  S  S S S E E
|-(0)-0---0--0--0-0-0-0-0---|
|-(1)-1---1--1--1-1-1-1-1---|
|-(0)-0---0--0--0-0-0-0-0---|
|-(2)-2---2--2--2-2-2-2-2---|
|-(3)-3---3--3--3-3-3-3-3---|
|---------------------------|
           No one compares

  Eb       Dm7         C
  E  E S S E  E  E S S E   +E   S S Q   E  S S E E
|-3--3-3-3-1--1--1-1-1-0-|-(0)--0-0-0---0--0-0-0-0---|
|-4--4-4-4-1--1--1-1-1-1-|-(1)--1-1-1---1--1-1-1-1---|
|-3--3-3-3-2--2--2-2-2-0-|-(0)--0-0-0---0--0-0-0-0---|
|-1--1-1-1-0--0--0-0-0-2-|-(2)--2-2-2---2--2-2-2-2---|
|----------------------3-|-(3)--3-3-3---3--3-3-3-3---|
|------------------------|---------------------------|
(I ain't seen love like that)

  Eb     Dm7         C                             Eb       Dm7         C
  E  E E E +E  E S S E   +E   S S Q  E S S E E     E  E S S E +E  E S S E
|-3--3-x-1-(1)-1-x-x-0-|-(0)--0-0-0--0-0-0-0-0---|-3--3-3-3-1-(1)-1-1-1-0--|
|-4--4-x-1-(1)-1-x-x-1-|-(1)--1-1-1--1-1-1-1-1---|-4--4-4-4-1-(1)-1-1-1-1--|
|-3--3-x-2-(2)-2-x-x-0-|-(0)--0-0-0--0-0-0-0-0---|-3--3-3-3-2-(2)-2-2-2-0--|
|-1--1-x-0-(0)-0-x-x-2-|-(2)--2-2-2--2-2-2-2-2---|-1--1-1-1-0-(0)-0-0-0-2--|
|--------------------3-|-(3)--3-3-3--3-3-3-3-3---|----------------------3--|
|----------------------|-------------------------|-------------------------|
(ain't seen love like that) ain't seen love      (I ain't seen love like that)

                          Eb         Bb
  +E   S S Q  E E E S S   E  S S S S E  S  S E E S S
|-(0)--0-0-0--0-0-0-0-0-|-6--6-6-6-6-6--6--6-6-6-6-6-|
|-(1)--1-1-1--1-1-1-1-1-|-8--8-8-8-8-6--6--6-6-6-6-6-|
|-(0)--0-0-0--0-0-0-0-0-|-8--8-8-8-8-7--7--7-7-7-7-7-|
|-(2)--2-2-2--2-2-2-2-2-|-8--8-8-8-8-8--8--8-8-8-8-8-|
|-(3)--3-3-3--3-3-3-3-3-|-6--6-6-6-6-8--8--8-8-8-8-8-|
|-----------------------|------------6--6--6-6-6-6-6-|
             No I ain't

  Ab         G7
  E  S S S S E  H       +W
|-4--4-4-4-4-1--1-----|-(1)----*|
|-4--4-4-4-4-0--0-----|-(0)----*|
|-5--5-5-5-5-0--0-----|-(0)----*|
|-6--6-6-6-6-0--0-----|-(0)----*|
|-6--6-6-6-6-2--2-----|-(2)----*|
|-4--4-4-4-4-3--3-----|-(3)----*|



Duration Legend
---------------
W - whole
H - half
Q - quarter
E - 8th
S - 16th
T - 32nd
X - 64th
. - note dotted
|-n-|  - n-tuplets


Tablature Legend
----------------
L - tied note
x - dead note
g - grace note
(n) - ghost note
> - accentuded note
NH - natural harmonic
AH - artificial harmonic
TH - tapped harmonic
SH - semi harmonic
PH - pitch harmonic
h - hammer on
p - pull off
b - bend
br - bendRelease
pb - preBend
pbr - preBendRelease
brb - bendReleaseBend
\n/ - tremolo bar dip
\n - tremolo bar dive
-/n - tremolo bar Release up
/n\ - tremolo bar inverted dip
/n - tremolo bar return
-\n - tremolo bar Release down
S - shift slide
s - legato slide
/ -  slide into from below or out of upwards
\ -  slide into from above or out of downwards
~ - vibrato
W - wide vibrato
tr - trill
TP - tremolo picking
T - tapping
S - slap
P - pop
< - fade in
^ - brush up
v - brush down

            
            
Suggest correction
Creating personal tab
Creating personal tab
You can edit any tab online and save it as your Personal.

You can edit, replace or remove any tab part or add personal notes – all changes will be seen only by you.

Personal tabs can be accessed anytime from any device, even offline.
Learn more »
Give kudos to tab author, rate the tab!
1 2 3 4 5
comments
print report bad tab
guest
You may want to rate the tab now too:
select rating
Wanna post a correction for this tab? Suggest correction