Oops, an error
Loading. Please wait.

Anything For You Tab

version 1
version 1

Solo

Whole song

Interactive

3,194 views 1 this week
1 commentread comment
1 2 3 4 5
excellent!
x 5
add to favorites
launch autoscroll
font size
0
reset
how to read this tab
guitar tuner
Tab Pro tools
  • play this tab
  • loop segment
  • change instrument
  • show fretboard
  • metronome
Autoscroll
slow
fast
+/-
esc
set tempo
stop
Contributor
Difficulty
advanced
      MR.Big - Anything for You SOLO



     W                   W                   W                 
E||-------------------|-------------------|-------------------|
B||-------------------|-------------------|-------------------|
G||-------------------|-------------------|-------------------|
D||-------------------|-------------------|-------------------|
A||-------------------|-------------------|-------------------|
E||-------------------|-------------------|-------------------|



   Q      E    Q.      S  S  S  S  
----------------------------------|
----------------------------------|
--14b----14b--14~------L----12-14-|
-------------------------12-------|
----------------------------------|
----------------------------------|


   E     S  S  S  S   S    S    S    S    S   S  E    S T  T  
-------------------------------------------------------------|
-------------------------------------------------------------|
--14br--12----12-14p-12S-\11---------------------------------|
-----------14----------------<>12-----------------------x-/5-|
----------------------------------<>12-<>10-<>9--------------|
------------------------------------------------10~--10------|


    PM     PM     PM     PM                          NH 
  S S    S S    S S    S S    S   S T  T  T T S E    S  
-------------------------------------------------------|
-------------------------------------------------------|
--4----<>5----<>7----<>5----<>4-<>5-4h-5p-4---4-5------|
----5------5------5------5------------------5------<>7-|
-------------------------------------------------------|
-------------------------------------------------------|


    NH  NH  NH  NH  NH  NH                                  
                                           |---3---|        
    S   S   S   S   S   Q      S  S  S  S  T   T   T  S  S  
-----------------------------------------------------------|
----------<>7-----------------------12-15-12h-15p-12-------|
------<>5-----<>7-----<>7~----12-14------------------14-12-|
--<>5-------------<>7--------------------------------------|
-----------------------------------------------------------|
-----------------------------------------------------------|


   S   S  E      S   S  Q.     E.  S  
-----------------------------------0-|
------15-----------------------------|
--14b----14pbr--12S-11---------------|
-----------------------12------------|
-------------------------------------|
-------------------------------------|


   |---6--|  |--6--|  |---6---|  |--|  |--6--|  |--6--|  |--6--|           
   S   S  S  S  S  S  T   T   T  T  S  S  S  S  S  S  S  S  S  S   E   E   
------15----15-17-19-17h-19p-17-15----15----------------15-17-19S-22~--L--|
--18b----17------------------------19----19-17-15-17-19-------------------|
--------------------------------------------------------------------------|
--------------------------------------------------------------------------|
--------------------------------------------------------------------------|
--------------------------------------------------------------------------|


   T   T  T   T  T  T   T  T  T   T  T   T  T   T  T   T  T  T   T  T  T   T  T 
--15p-12------------------12-15p-12-17p-12-14p-10------------------10-14p-10-15p-
---------------------------------------------------------------------------------
---------17p-12----12h-17-------------------------14p-11----11h-14---------------
----------------14---------------------------------------12----------------------
---------------------------------------------------------------------------------
---------------------------------------------------------------------------------


                                                        |--3--|          
   T   T  T   T  T  T   T  T  T   T  T   T  E     S  S  S  S  S  Q       
--19p-15------------------15-19p-15-20p-15-------------------17---------|
----------------------------------------------------17-19-20------------|
---------19p-16----16h-19------------------17~------------------19b~----|
----------------17------------------------------/19---------------------|
------------------------------------------------------------------------|
------------------------------------------------------------------------|



-------------------|-------------------||
-------------------|-------------------||
-------------------|-------------------||
-------------------|-------------------||
-------------------|-------------------||
-------------------|-------------------||




Duration Legend
---------------
W - whole
H - half
Q - quarter
E - 8th
S - 16th
T - 32nd
X - 64th
. - note dotted
|-n-|  - n-tuplets


Tablature Legend
----------------
L - tied note
x - dead note
g - grace note
(n) - ghost note
> - accentuded note
NH - natural harmonic
AH - artificial harmonic
TH - tapped harmonic
SH - semi harmonic
PH - pitch harmonic
h - hammer on
p - pull off
b - bend
br - bendRelease
pb - preBend
pbr - preBendRelease
brb - bendReleaseBend
\n/ - tremolo bar dip
\n - tremolo bar dive
-/n - tremolo bar Release up
/n\ - tremolo bar inverted dip
/n - tremolo bar return
-\n - tremolo bar Release down
S - shift slide
s - legato slide
/ -  slide into from below or out of upwards
\ -  slide into from above or out of downwards
~ - vibrato
W - wide vibrato
tr - trill
TP - tremolo picking
T - tapping
S - slap
P - pop
< - fade in
^ - brush up
v - brush down
comments
print report bad tab
1 comment total.
0 reply
jonathankhlau wrote on March 9 2013, 01:01 pm

accurate taps! with clear instructions!!!

I want to post or [tab]
guest
You may want to rate the tab now too:
select rating
Please do not post tabs as comments. Select "correction" instead!