Oops, an error
Loading. Please wait.

Anything For You Tab

version 1
version 1

Whole song

Interactive

14,200 views 30 this week
no commentswrite comment
1 2 3 4 5
please rate
add to favorites
launch autoscroll
font size
0
reset
how to read this tab
guitar tuner
Autoscroll
slow
fast
+/-
esc
set tempo
stop
Help us to improve Ultimate-Guitar.com Take our survey!
×
Mr. Big - Anything For You
Tabbed by Julian Loor Maruri
julianloor_88@hotmail.com
Guayaquil - Ecuador

This is the first complete version of this tab.
You must tune the best effects to arrange Paul Gilbert's sound.
Paul Gilbert is 1 of the 10 best Guitarists of the world.

 h   - hammer-on
 p   - pull-off
 b   - bend
 r   - bend release 
 ~   - vibrato
 ph  - pinch harmonic
 ( ) - natural harmonics

INTRO

 Gsus4  Gsus2   G      D      Gsus4   G  Dsus4  D
 
|-8------5------7------5----------3-----3-3-----2-----|
|---8------8------8------7------3-----3-----3-----3---|
|-----7------7------7------7--5-----4---------2-----2-|
|-----------------------------------------------------|
|-----------------------------------------------------|
|-----------------------------------------------------|

  Em11

|----------2-2-|
|-------3----3-|
|-----2------2-|
|---5--------5-|
|-2----------2-|
|------------0-|

  Em11          Em11

|---------2-2----------2---|
|-------3---3--------3---3-|
|-----2-----2------2-------|
|---5-------5----5---------|
|-2---------2--2-----------|
|-----------0--------------|

  A7sus4

|---0-----------0---------------|
|-----3---3-------3-----3-------|
|-------2---2-------2-----2-----|
|-------------5-------5-----5---|
|-0-----------------------------|
|-----------------------------5-|

 Dsus4/C   D/Gsus4/C

|----------------|
|----8------7--8-|
|----7------7--7-|
|----7------7--7-|
|----------------|
|--0-0------0--0-|

   Em11

|---------2-2----------2-2--2---------|
|-------3---3--------3---3----3-------|
|-----2-----2------2-----2------2-----|
|---5-------5----5-------5--------5---|
|-2---------2--2---------2----------2-|
|-----------0------------0------------|


VERSE

  Em11
 You have me burnin' up          With your bad timing

               |----------------------------------|
               |----------3-----------------3-----|
               |--------2---2---------2---2---2---|
               |------5-------5---------5-------5-|
               |----2-----------2-----------------|
               |-0-----------------0--------------|

  A7sus4
   One small moment

|---0-----------0---------------|
|-----3---3-------3-----3-------|
|-------2---2-------2-----2-----|
|-------------5-------5-----5---|
|-0-----------------------------|
|-----------------------------5-|

 Dsus4/C   D/Gsus4/C
 I'm lost in your love

|----------------|
|----8------7--8-|
|----7------7--7-|
|----7------7--7-|
|----------------|
|--8-8------8--8-|

  Em11

|---------2-2-|
|-------3---3-|
|-----2-----2-|
|---5-------5-|
|-2---------2-|
|-----------0-|

  Em11
 I'm lost and innocent,  Turn my head around

	|-------------------------------|
	|-------3-----------------3-----|
	|-----2---2---------2---2---2---|
	|---5-------5---------5-------5-|
	|-2-----------2-----------------|
	|----------------0--------------|

  A7sus4
   Your one liners 

|---0-----------0---------------|
|-----3---3-------3-----3-------|
|-------2---2-------2-----2-----|
|-------------5-------5-----5---|
|-0-----------------------------|
|-----------------------------5-|

 Dsus4/C   D/Gsus4/C
  I can do without

     |----------------|
     |----8------7--8-|
     |----7------7--7-|
     |----7------7--7-|
     |----------------|
     |--8-8------8--8-|


PRE-CHORUS
w/distorsion

  Am7
           Easy come 

|------------------------------------------|
|-----5-5---5------------------------------|
|-----7-7---7---------5---------5-5----5---|
|-7-7-----7-----x-x---5-----5---5-5----5-7-|
|---------------x-x---------5-7-----7------|
|-------------5-x-x-5---5-5----------------|

     Bm7
  Easy go

|----------------------------------|
|----------------------------------|
|----------7---------7-7-------7-9-|
|----------7-----7---7-7-9-7---7-9-|
|----------------7-9---------9-----|
|-5--7-7-7---7-7-------------------|

                        I can't back... 

|-----------------------------------|
|-----------------------------------|
|-5-x-x-x---x-x-----5-5---------5---|
|-5-x-x-x---x-x-5---5-5-------x---7-|
|---x-x-x---x-x-5-7-----7---x-------|
|-5-x-x-x-5---------------x---------|

                      Down baby...

|------------------------------------|
|------------------------------------|
|----------7---------7-7---------7-9-|
|----------7-----7---7-7---9-7---7-9-|
|----------------7-9-----9-----9-----|
|-5--7-7-7---7-7---------------------|

  D/C  Dsus4/C        D/C  Dsus4/C  D5
                                 I should have...

|-------------------------------------|
|-----------------------------------3-|
|-7-----8--------------7-7---0--0---2-|
|-7-----7--------------7-7---7--7---0-|
|-7-----7--------------7-7---7--7-----|
|----8-----8-8-8-8-8-8-----8----------|

  let you know that

Natural Harmonics
|---------------------|
|---------------------|
|-----------(7)-------|
|----(7)-(5)------(7)-|
|-(7)----------(7)----|
|---------------------|


CHORUS

   G           D        Em7    Bm7
    I would do anything for you, anything for you

|---------------------------------------------|
|----12-------10-----10---8----7-8-10-8-7-7-7-|
|-------12------11----------7--7-7-7--7-7-9-7-|
|-12-------12-----12-----------7-7-7--7-7-7-7-|
|-10--------------------7---------------------|
|---------------------------------------------|

  Am7  Bm7 C       D
          If I only had you by my side       

|---------------------------------------------|
|-5----7-----5-----7-----8---10---8---7-8-----|
|-5----7-------5-----7-----7----7---7-----9-7-|
|-5----7---------5-----7----------------------|
|---------------------------------------------|
|-5----7---8----------------------------------|

   G           D        Em7    Bm7
    I would do anything for you, anything for you
|---------------------------------------------|
|----12-------10-----10---8----7-8-10-8-7-7-7-|
|-------12------11----------7--7-7-7--7-7-9-7-|
|----------12-----12-----------7-7-7--7-7-7-7-|
|-10--------------------7---------------------|
|---------------------------------------------|

  Am7  Bm7 C   Dsus4/C D/C Dsus4/C
             So wave goodbye             

|-------------------------|
|-5----7-----7------8-7-8-|
|-5----7-----7------7-7-7-|
|-5----7-----7------7-7-7-|
|-------------------------|
|-5----7---7---7--8-8-8-8-|


INTERLUDE

   Em11
 Anything For you

|---------2-2----------2-2--2---------|
|-------3---3--------3---3----3-------|
|-----2-----2------2-----2------2-----|
|---5-------5----5-------5--------5---|
|-2---------2--2---------2----------2-|
|-----------0------------0------------|

VERSE

  Em11
    One day comes, And I dissappear

|----------------------------------|
|----------3-----------------3-----|
|--------2---2---------2---2---2---|
|------5-------5---------5-------5-|
|----2-----------2-----------------|
|-0-----------------0--------------|

  A7sus4
  You'll get your independance 

|---0-----------0---------------|
|-----3---3-------3-----3-------|
|-------2---2-------2-----2-----|
|-------------5-------5-----5---|
|-0-----------------------------|
|-----------------------------5-|

 Dsus4/C   D/Gsus4/C
     Free and clear

|----------------|
|----8------7--8-|
|----7------7--7-|
|----7------7--7-|
|----------------|
|--8-8------8--8-|

  Em11

|---------2-2-|
|-------3---3-|
|-----2-----2-|
|---5-------5-|
|-2---------2-|
|-----------0-|

  Em11
 Ah, you got it in you, A chance to make it work

|-------------------------------|
|-------3-----------------3-----|
|-----2---2---------2---2---2---|
|---5-------5---------5-------5-|
|-2-----------2-----------------|
|----------------0--------------|

  A7sus4
  Your heart will keep on beating 

|---0-----------0---------------|
|-----3---3-------3-----3-------|
|-------2---2-------2-----2-----|
|-------------5-------5-----5---|
|-0-----------------------------|
|-----------------------------5-|

 Dsus4/C   D/Gsus4/C
And I'll still hurt 

|----------------|
|----8------7--8-|
|----7------7--7-|
|----7------7--7-|
|----------------|
|--8-8------8--8-|


PRE-CHORUS
w/distorsion

  Am7
           Easy come               
                                       ph~
|------------------------------------------|
|-----5-5---5------------------------------|
|-----7-7---7---------5---------5-5----5---|
|-7-7-----7-----x-x---5-----5---5-5----5-7-|
|---------------x-x---------5-7-----7------|
|-------------5-x-x-5---5-5----------------|

     Bm7
  Easy go

|----------------------------------|
|----------------------------------|
|----------7---------7-7-------7-9-|
|----------7-----7---7-7-9-7---7-9-|
|----------------7-9---------9-----|
|-5--7-7-7---7-7-------------------|

                        Before we... 

|-----------------------------------|
|-----------------------------------|
|-5-x-x-x---x-x-----5-5---------5---|
|-5-x-x-x---x-x-5---5-5-------x---7-|
|---x-x-x---x-x-5-7-----7---x-------|
|-5-x-x-x-5---------------x---------|

                      throwing away...

|------------------------------------|
|------------------------------------|
|----------7---------7-7---------7-9-|
|----------7-----7---7-7---9-7---7-9-|
|----------------7-9-----9-----9-----|
|-5--7-7-7---7-7---------------------|

  D/C  Dsus4/C        D/C  Dsus4/C  D5
                                 Can you hear me...

|-------------------------------------|
|-----------------------------------3-|
|-7-----8--------------7-7---0--0---2-|
|-7-----7--------------7-7---7--7---0-|
|-7-----7--------------7-7---7--7-----|
|----8-----8-8-8-8-8-8-----8----------|

Natural Harmonics

  saying baby

|---------------------|
|---------------------|
|-----------(7)-------|
|----(7)-(5)------(7)-|
|-(7)----------(7)----|
|---------------------|


CHORUS

   G           D        Em7    Bm7
    I would do anything for you, anything for you

|---------------------------------------------|
|----12-------10-----10---8----7-8-10-8-7-7-7-|
|-------12------11----------7--7-7-7--7-7-9-7-|
|-12-------12-----12-----------7-7-7--7-7-7-7-|
|-10--------------------7---------------------|
|---------------------------------------------|

  Am7  Bm7 C       D
          If I only had you by my side       

|---------------------------------------------|
|-5----7-----5-----7-----8---10---8---7-8-----|
|-5----7-------5-----7-----7----7---7-----9-7-|
|-5----7---------5-----7----------------------|
|---------------------------------------------|
|-5----7---8----------------------------------|

   G           D        Em7    Bm7
    I would do anything for you, anything for you
|---------------------------------------------|
|----12-------10-----10---8----7-8-10-8-7-7-7-|
|-------12------11----------7--7-7-7--7-7-9-7-|
|----------12-----12-----------7-7-7--7-7-7-7-|
|-10--------------------7---------------------|
|---------------------------------------------|

  Am7  Bm7 C   Dsus4/C D/C Dsus4/C
                    If we say goodbye...          

|-----------------------------|
|-5----7-----7--------5-x-x-7-|
|-5----7-----7--------5-x-x-7-|
|-5----7-----7--------5-x-x-7-|
|-----------------------------|
|-5----7---7---7--8-8---------|

I'll be waiting for you


SOLO

|-----------------------------------------|
|-----------------------------------------|
|-------12----12h14-14-12-14b16-14b16-14~-|
|-12h14----14-----------------------------|
|-----------------------------------------|
|-----------------------------------------|

                          ph       ph ph ph ph ph
|---------------------------------------------------|
|---------------------------------------------------|
|----12-14-14b16r14-12----12h14p12-11---------------|
|-14-------------------14-------------12------------|
|----------------------------------------12-10-9----|
|------------------------------------------------10-|

  ph ph ph ph ph ph ph ph ph ph ph
|-----------------------------------|
|-----------------------------------|
|-4---5---7---5---4-5-4-5-4---4h5p4-|
|---5---5---5---5-----------5-------|
|-----------------------------------|
|-----------------------------------|

                  w/trm 
|-------------------------------------------------------|
|-------------(7)------------12-15-12-15-------------15-|
|-----(7)-(5)-----(7)--12-14-------------14-12-14b16----|
|-(7)---------------------------------------------------|
|-------------------------------------------------------|
|-------------------------------------------------------|

|----------------|
|----------------|
|-14b16-12-11----|
|-------------12-|
|----------------|
|----------------|

 Very Fast
|-0-----15--15-17-19-17-19-17-15--15--------------15-17-19-22~-|
|--18b20--17--------------------19--19-17-15-17-19-------------|
|--------------------------------------------------------------|
|--------------------------------------------------------------|
|--------------------------------------------------------------|
|--------------------------------------------------------------|

 Very Very Fast
|-15-12----------------12-15-12-17-12-14-10----------------|
|----------------------------------------------------------|
|-------17-12----12-17----------------------14-11----11-14-|
|-------------14----------------------------------12-------|
|----------------------------------------------------------|
|----------------------------------------------------------|

|-10-14-10-15-10-17-14----------------14-19-15----------------|
|-------------------------------------------------------------|
|----------------------19-14----14-19----------19-16----16-19-|
|----------------------------16----------------------17-------|
|-------------------------------------------------------------|
|-------------------------------------------------------------|

|-15-19-15-20-15-----------------17-----|
|-----------------------17-19-20--------|
|----------------17-----------------19~-|
|-------------------19------------------|
|---------------------------------------|
|---------------------------------------|


PRE-CHORUS

  Am7
           Easy come 

|------------------------------------------|
|-----5-5---5------------------------------|
|-----7-7---7---------5---------5-5----5---|
|-7-7-----7-----x-x---5-----5---5-5----5-7-|
|---------------x-x---------5-7-----7------|
|-------------5-x-x-5---5-5----------------|

     Bm7
  Easy go

|----------------------------------|
|----------------------------------|
|----------7---------7-7-------7-9-|
|----------7-----7---7-7-9-7---7-9-|
|----------------7-9---------9-----|
|-5--7-7-7---7-7-------------------|

                        I can't back... 

|-----------------------------------|
|-----------------------------------|
|-5-x-x-x---x-x-----5-5---------5---|
|-5-x-x-x---x-x-5---5-5-------x---7-|
|---x-x-x---x-x-5-7-----7---x-------|
|-5-x-x-x-5---------------x---------|

                      Down baby...

|------------------------------------|
|------------------------------------|
|----------7---------7-7---------7-9-|
|----------7-----7---7-7---9-7---7-9-|
|----------------7-9-----9-----9-----|
|-5--7-7-7---7-7---------------------|

  D/C  Dsus4/C        D/C  Dsus4/C  D5
                                 

|-------------------------------------|
|-----------------------------------3-|
|-7-----8--------------7-7---0--0---2-|
|-7-----7--------------7-7---7--7---0-|
|-7-----7--------------7-7---7--7-----|
|----8-----8-8-8-8-8-8-----8----------|

 
....I should have let you know that

OUTRO-CHORUS

   G           D        Em7    Bm7
    I would do anything for you, anything for you

|---------------------------------------------|
|----12-------10-----10---8----7-8-10-8-7-7-7-|
|-------12------11----------7--7-7-7--7-7-9-7-|
|-12-------12-----12-----------7-7-7--7-7-7-7-|
|-10--------------------7---------------------|
|---------------------------------------------|

  Am7  Bm7 C       D
          If I only had you by my side       

|---------------------------------------------|
|-5----7-----5-----7-----8---10---8---7-8-----|
|-5----7-------5-----7-----7----7---7-----9-7-|
|-5----7---------5-----7----------------------|
|---------------------------------------------|
|-5----7---8----------------------------------|

   G           D        Em7    Bm7
    I would do anything for you, anything for you

|---------------------------------------------|
|----12-------10-----10---8----7-8-10-8-7-7-7-|
|-------12------11----------7--7-7-7--7-7-9-7-|
|-12-------12-----12-----------7-7-7--7-7-7-7-|
|-10--------------------7---------------------|
|---------------------------------------------|

  Am7  Bm7 C       D
          If you wave goodbye I'll still be waiting       

|---------------------------------------------|
|-5----7-----5-----7-----8---10---8---7-8-----|
|-5----7-------5-----7-----7----7---7-----9-7-|
|-5----7---------5-----7----------------------|
|---------------------------------------------|
|-5----7---8----------------------------------|

   G           D        Em7    Bm7
    I would do anything for you, anything for you

|---------------------------------------------|
|----12-------10-----10---8----7-8-10-8-7-7-7-|
|-------12------11----------7--7-7-7--7-7-9-7-|
|-12-------12-----12-----------7-7-7--7-7-7-7-|
|-10--------------------7---------------------|
|---------------------------------------------|

  Am7  Bm7 C       D
          If I only had you by my sideeeeee...       

|---------------------------------------------|
|-5----7-----5-----7-----8---10---8---7-8-----|
|-5----7-------5-----7-----7----7---7-----9-7-|
|-5----7---------5-----7----------------------|
|---------------------------------------------|
|-5----7---8----------------------------------|

   G           D        Em7    Bm7
                               Anything for you
|---------------------------------------------|
|----12-------10-----10---8----7-8-10-8-7-7-7-|
|-------12------11----------7--7-7-7--7-7-9-7-|
|----------12-----12-----------7-7-7--7-7-7-7-|
|-10--------------------7---------------------|
|---------------------------------------------|

  Am7  Bm7  Dsus4/C D/C Dsus4/C                  
              So wave goodbye             

|--------------------|
|-5----7-------8-7-8-|
|-5----7-------7-7-7-|
|-5----7-------7-7-7-|
|--------------------|
|-5----7-----8-8-8-8-|

   Em11
 Anything For you

|---------2-2-|
|-------3---3-|
|-----2-----2-|
|---5-------5-|
|-2---------2-|
|-----------0-|

FINISH!!
Enjoy It..!!
Suggest correction
Give kudos to tab author, rate the tab!
1 2 3 4 5
comments
print report bad tab
guest
You may want to rate the tab now too:
select rating
Please do not post tabs as comments. Select "correction" instead!