Oops, an error
Loading. Please wait.

Colorado Bulldog Bass Tab

version 1
version 1

Whole song

Interactive

10,522 views 12 this week
no commentswrite comment
1 2 3 4 5
excellent!
x 4
add to favorites
launch autoscroll
font size
0
reset
guitar tuner
Tab Pro tools
  • play this tab
  • loop segment
  • change instrument
  • show fretboard
  • metronome
Autoscroll
slow
fast
+/-
esc
set tempo
stop
Contributor
Difficulty
advanced
      Mr.Big - Colorado Bulldog                            



     |-3-| |-3-|  |--3--|  |--3--| |-3-| |-3-| |-3-|  |--3--|  
     S S S S S S  S  S  S  S  S  S S S S S S S S S S  S  S  S  
G||--------------------------------------9-9-9-------12-12-12-|
D||--------9-9-9----------12-12-12-7-7-7-------9-9-9----------|
A||--7-7-7-------10-10-10-------------------------------------|
E||-----------------------------------------------------------|


  |-3-|  |--3--|  |--3--| |-3-|  |--3--|  |--3--|  |--3--|  |--3--|  
  S S S  S  S  S  S  S  S S S S  S  S  S  S  S  S  S  S  S  S  S  S  
--------------------------------------------------------------------|
--0-0-0-------------------9-9-9----------12-12-12----------14-14-14-|
--------12-12-12----------------10-10-10----------12-12-12----------|
-----------------12-12-12-------------------------------------------|


   |--3--|  |--3--|  |--3--|  |--3--| |-3-|  |--3--| |-3-| |-3-|  
   S  S  S  S  S  S  S  S  S  S  S  S S S S  S  S  S S S S S S S  
-----------16-16-16----------14-14-14-------12-12-12-------9-9-9-|
--14-14-14----------12-12-12----------9-9-9----------7-7-7-------|
-----------------------------------------------------------------|
-----------------------------------------------------------------|


   |--3--|  |--3--| |-3-| |-3-| |-3-| |-3-| |-3-| |-3-|                      
   S  S  S  S  S  S S S S S S S S S S S S S S S S S S S    W                 
--------------------------------------------------------|-------------------|
-----------12-12-12-------9-9-9-------7-7-7-------------|-------------------|
--10-10-10----------7-7-7-------5-5-5-------------7-7-7-|--0----------------|
--------------------------------------------7-7-7-------|-------------------|


  E.  E.  Q    E  E  E     E.  E.  Q    E  E  E     E.  E.  Q    E  E  E   
------------------------|------------------------|------------------------|
------------------------|------------------------|------------------------|
------------------------|---------------------5--|------------------------|
--0---3---5----3--0--3--|--0---3---5----6--7-----|--0---3---5----3--0--3--|


  E.  E.  Q    E  E  E     E.  E.  Q    E  E  E     E.  E.  Q    E  E  E   
------------------------|------------------------|------------------------|
------------------------|------------------------|------------------------|
---------------------5--|------------------------|---------------------5--|
--0---3---5----6--7-----|--0---3---5----3--0--3--|--0---3---5----6--7-----|


  E.  E.  Q    E  E  E     E.  E.  E  E  E  E  E     E  E  E  E  E  E  E  E   
------------------------|-------------------------|--------------------------|
------------------------|-------------------------|--------------------------|
------------------------|-------------------5--6--|--7-----5-----7-----------|
--0---3---5----3--0--3--|--0---3---5--6--7--------|-----7-----7-----0--3--5--|
                                                    Ace high in golden

  E  E  E  E  E  E  E  E     E  E  E  E  E  E  E  E   
--------------------------|--------------------------|
--------------------------|--------------------------|
--------5--------5--7-----|--5-----------------5--6--|
--6--7-----6--7--------7--|-----7--3--5--6--7--------|
I was tall and on the rocks  And a little touch of attitude

  H        E   S   S Q       E  E  E  E  E  E  E  E   
--------------18S-19------|--9--7--------------------|
--------------17S-18------|--------9--7--8--5--------|
--7-----------------------|--------------------7--5--|
--------------------------|--------------------------|
                            Who's that Madame X

  S S E  E  E  E  E  S S E     E  E  E  E  E  E  E  E     W                  
----------------------------|--------------------------|--------------------|
--7-5-----------------------|-----------------------5--|--------------------|
------7------------------5--|-----------------5--7-----|--7S----------------|
---------7--6--5--3--5-7----|--0--3--5--6--7-----------|--------------------|
Comon' in at three o'clock   Why don't you send her over, one, two

  S S S S S S S S S S S S S S S S    S S S S S S S S S S S S S S S S  
----------------------------------|----------------------------------|
----------------------------------|----------------------------------|
--2-2-2-2-2-2-2-2-2-2-2-2-2-2-2-2-|--2-2-2-2-2-2-2-2-2-2-2-2-2-2-2-2-|
----------------------------------|----------------------------------|
Next thing I remember               I was crawlin' round the room

  S S S S S S S S S S S S S S S S    Q    Q    Q    Q     
----------------------------------|----------------------|
----------------------------------|----------------------|
--2-2-2-2-2-2-2-2-2-2-2-2-2-2-2-2-|--2---------2---------|
----------------------------------|----------------------|
 She was dancin' on the table        Blood shot

  E.  E.  E  Q    Q       S S S S S S S S S S S S S S S S  
-----------------------|----------------------------------|
-----------------------|----------------------------------|
--2---2---2--2---------|--7-7-7-7-7-7-7-7-7-7-7-7-7-7-7-7-|
-----------------------|----------------------------------|
 barking' at the moon     Colorado 

  S S S S S S S S S S S S S S S S    Q    Q    Q    Q     
----------------------------------|--7---------2---------|
----------------------------------|--7---------2---------|
--7-7-7-7-7-7-7-7-7-7-7-7-7-7-7-7-|--5---------0---------|
----------------------------------|----------------------|
   Bulldog                          This night has gone 

  S S S S S S S S S S S S S S S S    S S S S S S S S S S S S S S S S  
----------------------------------|----------------------------------|
----------------------------------|----------------------------------|
--7-7-7-7-7-7-7-7-7-7-7-7-7-7-7-7-|--7-7-7-7-7-7-7-7-7-7-7-7-7-7-7-7-|
----------------------------------|----------------------------------|
 to my head                          Colorado 

  S S S S S S S S S S S S S S S S    Q    Q    Q    E  E   
----------------------------------|--7---------2----------|
----------------------------------|--7---------2----------|
--7-7-7-7-7-7-7-7-7-7-7-7-7-7-7-7-|--5---------0----0--2--|
----------------------------------|-----------------------|
 bulldog                             Throw a leash around   

  E  S E  S E  E  S E  S E     E  S E  S E  E  S E  S E   
----------------------------|----------------------------|
----------------------------|----------------------------|
--3--3-3--3-3--5--5-5--5-5--|--3--3-3--3-3--5--5-5--5-5--|
----------------------------|----------------------------|
 my neck     Turn around and run               like hell

  E.  E.  Q    E  E  E     E.  E.  Q    E  E  E     E.  E.  Q    E  E  E   
------------------------|------------------------|------------------------|
------------------------|------------------------|------------------------|
------------------------|---------------------5--|------------------------|
--0---3---5----3--0--3--|--0---3---5----6--7-----|--0---3---5----3--0--3--|


  E.  E.  E  E  E  E  E     E  E  E  E  E  E  E  S S  
-------------------------|---------------------------|
-------------------------|---------------------------|
-------------------5--6--|--7--7--5------------------|
--0---3---5--6--7--------|-----------7--6--5--3--5-7-|
                           Swingin' from the rafters,

  E  E  E  E  E  E  S S E     E  E  E  E  S S E  E  E   
---------------------------|---------------------------|
---------------------------|------------------------5--|
-----------------5------5--|--7---------------5--------|
--0--3--5--6--7-----7-7----|-----0--3--5--6-7----7-----|
  Losin' all control        Playin' a little game of 

  E  E  E  Q     S   S E.  S    E  E  E  E  E  E  E  S S  
----------------18S-19-------|--9--7---------------------|
----------------17S-18-----9-|--------9--8--7------------|
--7-----5--7-----------------|-----------------5--7--5-7-|
-----7-----------------------|---------------------------|
 cat and mouse               I poped the question

  E  E  E  E  S S E  S S E     E  E  E  E  E  E  E  E   
----------------------------|--------------------------|
--7--5----------------------|-----------------------5--|
--------7--5-------------5--|-----------------5--7-----|
--------------7-5-3--5-7----|--0--3--5--6--7-----------|
 I've been lonely much too long Last call, the drinks are on the house

  E   E   E   H         E     S S S S S S S S S S S S S S S S  
---------------------------|----------------------------------|
---------------------------|----------------------------------|
--7S--5S--7S--5S-----------|--2-2-2-2-2-2-2-2-2-2-2-2-2-2-2-2-|
---------------------------|----------------------------------|
                              Next thing I remember

  S S S S S S S S S S S S S S S S    S S S S S S S S S S S S S S S S  
----------------------------------|----------------------------------|
----------------------------------|----------------------------------|
--2-2-2-2-2-2-2-2-2-2-2-2-2-2-2-2-|--2-2-2-2-2-2-2-2-2-2-2-2-2-2-2-2-|
----------------------------------|----------------------------------|
 Through the pandemonium             It was feelin' like a nightmare

  Q    Q    Q    Q       E.  E.  E  Q    Q     
----------------------|-----------------------|
----------------------|-----------------------|
--2---------2---------|--2---2---2--2---------|
----------------------|-----------------------|
 That bites right         into my skin

  S S S S S S S S S S S S S S S S    S S S S S S S S S S S S S S S S  
----------------------------------|----------------------------------|
----------------------------------|----------------------------------|
--7-7-7-7-7-7-7-7-7-7-7-7-7-7-7-7-|--7-7-7-7-7-7-7-7-7-7-7-7-7-7-7-7-|
----------------------------------|----------------------------------|
  Colorado                           Bulldog                  

  Q    Q    Q    Q       S S S S S S S S S S S S S S S S  
--7---------2---------|----------------------------------|
--7---------2---------|----------------------------------|
--5---------0---------|--7-7-7-7-7-7-7-7-7-7-7-7-7-7-7-7-|
----------------------|----------------------------------|
  This night has gone to my head

  S S S S S S S S S S S S S S S S    S S S S S S S S S S S S S S S S  
----------------------------------|----------------------------------|
----------------------------------|----------------------------------|
--7-7-7-7-7-7-7-7-7-7-7-7-7-7-7-7-|--7-7-7-7-7-7-7-7-7-7-7-7-7-7-7-7-|
----------------------------------|----------------------------------|
  Colorado                           bulldog 

  Q    Q    Q    E  E     E  S E  S E  E  S E  S E   
--7---------2----------|----------------------------|
--7---------2----------|----------------------------|
--5---------0----0--2--|--3--3-3--3-3--5--5-5--5-5--|
-----------------------|----------------------------|
 Throw a leash around  my neck

                              w/ guitar solo
  E  S E  S E  E  S E  S E     E.  E.  Q    E  E  E     E.  E.  Q    E  E  E   
----------------------------|------------------------|------------------------|
----------------------------|------------------------|------------------------|
--3--3-3--3-3--5--5-5--5-5--|------------------------|------------------------|
----------------------------|--0---2---2----2--2--2--|--0---2---2----2--2--2--|
 Turn around and run like    hell

  E.  E.  Q    E  E  E     E.  E.  Q    E  E   E       W                 
------------------------|---------------------------|-------------------|
------------------------|---------------------14b~--|--L----------------|
------------------------|---------------------------|-------------------|
--0---2---2----2--2--2--|--0---2---2----2--2--------|-------------------|


  W                   W                   H.           E  S S  
-------------------|-------------------|----------------------|
--L----------------|--L----------------|--L------------L------|
-------------------|-------------------|--------------------2-|
-------------------|-------------------|----------------------|


  |-3-|           |-3-|              |-3-|           |-3-|            
  S S S S E  E  S S S S S E  E  S    S S S S E  E  S S S S S E  E  S  
----------------------------------|----------------------------------|
------2-4-------------2-4---------|------2-4-------------2-4---------|
--3-4-----------2-3-4-----------2-|--3-4-----------2-3-4-----------2-|
----------2--2------------2--2----|----------2--2------------2--2----|


  |-3-|           |-3-|              |-3-|           |-3-|            
  S S S S E  E  S S S S S E  E  S    S S S S E  E  S S S S S E  E  S  
----------------------------------|----------------------------------|
------2-4-------------2-4---------|------2-4-------------2-4-------9-|
--3-4-----------2-3-4-----------2-|--3-4-----------2-3-4-------------|
----------2--2------------2--2----|----------2--2------------2--2----|


   |--3-|             |--3-|             
   S  S S  S E  E  S  S  S S  S E  E  S  
--------9-11---------------9-11---------|
--10-11------------9-10-11------------9-|
-------------9--9---------------9--9----|
----------------------------------------|


   |--3-|             |--3-|             
   S  S S  S E  E  S  S  S S  S E  E  S  
--------9-11---------------9-11---------|
--10-11------------9-10-11------------9-|
-------------9--9---------------9--9----|
----------------------------------------|


   |--3-|             |--3-|             
   S  S S  S E  E  S  S  S S  S E  E  S  
--------9-11---------------9-11---------|
--10-11------------9-10-11------------9-|
-------------9--9---------------9--9----|
----------------------------------------|


   |--3-|             |--3-|                                                
   S  S S  S E  E  S  S  S S  S E  E  S    S S S S S S S S S S S S S S S S  
--------9-11---------------9-11---------|----------------------------------|
--10-11------------9-10-11--------------|----------------------------------|
-------------9--9---------------9--9--0-|--0-0-0-0-0-0-0-0-0-0-0-0-0-0-0-0-|
----------------------------------------|----------------------------------|


  S S S S S S S S S S S S S S S S    S S S S S S S S S S S S S S S S  
----------------------------------|----------------------------------|
----------------------------------|--------------------------5---7---|
--0-0-0-0-0-0-0-0-0-0-0-0-0-0-0-0-|--0-0-0-0-0-0-0-0-0-0-5-7---7---7-|
----------------------------------|----------------------------------|


  S S S S S S S S S S S S S S E     S S S S S S S S S S S S S S S S  
---------------------------------|----------------------------------|
--5---4---4---5---7---5---7---4--|----------------------------------|
----7---7---7---7---7---7---7----|--0-0-0-0-0-0-0-0-0-0-0-0-0-0-0-0-|
---------------------------------|----------------------------------|


           |--6--|  |--6--|  |--6--|  |--6--|  |--6--|  |--6--|  
  S S S S  S  S  S  S  S  S  S  S  S  S  S  S  S  S  S  S  S  S  
----------------------------------------------------------------|
-------------------------------------------------------10-10-10-|
--0-0-0-0-10-10-10-12-12-12-10-10-10-12-12-12-14-14-14----------|
----------------------------------------------------------------|


   |--6--|  |--6--|  |--6--|  |--6--|  |--6--|  |--6--|  |--6--|  |--6--|  
   S  S  S  S  S  S  S  S  S  S  S  S  S  S  S  S  S  S  S  S  S  S  S  S  
--------------------------------------------------------15-15-15-16-16-16-|
--12-12-12-14-14-14-15-15-15-16-16-16-17-17-17-18-18-18-------------------|
--------------------------------------------------------------------------|
--------------------------------------------------------------------------|


   |--6--|  |--6--|  |--6--|  |--6--|                                      
   S  S  S  S  S  S  S  S  S  S  S  S  H            E.  E.  Q    E  E  E   
--17-17-17-18-18-18-19-19-19-20-20-20-21b--------|------------------------|
-------------------------------------------------|------------------------|
-------------------------------------------------|------------------------|
-------------------------------------------------|--0---3---5----3--0--3--|


  E.  E.  Q    E  E  E     E.  E.  Q    E  E  E     E.  E.  E  E  E  E  E   
------------------------|------------------------|-------------------------|
------------------------|------------------------|-------------------------|
---------------------5--|------------------------|-------------------5--6--|
--0---3---5----6--7-----|--0---3---5----3--0--3--|--0---3---5--6--7--------|


  E  E  E  E  E  E  E  E     E  E  E  S S E  E  E  E   
--------------------------|---------------------------|
--------------------------|---------------------------|
--7-----5--6--7-----------|--------5------5--6--7-----|
-----7-----------0--3--5--|--6--7-----7-7----------0--|
  My sweet Lolita,           a preying maneater

  E  E  E  E  E  E  E  E     E  E  E  E  E   S  S E.  S  
--------------------------|-----------------18-19-------|
--------------------------|-----------------17-18-----9-|
--------------5--------5--|--7-----5--7-----------------|
--3--5--6--7-----5--7-----|-----7-----------------------|
 Left me in the number six motel

  E  E  E  E  E  E  E  S S    S S E  E  E  E  E  S S E   
--9--7---------------------|----------------------------|
--------9--8--7--5---------|--7-5-----------------------|
--------------------7--5-7-|------7------------------7--|
---------------------------|---------7--6--5--3--5-7----|
 How was I to know            She'd strip me to the bone

  E  E  E  E  E  E  E  E     E   H        Q.      
--------------------------|----------------------|
--------------------------|----------------------|
-----------------5-----5--|--7\------------------|
--0--3--5--6--7-----7-----|----------------------|
 And steal away my heart as well

  S S S S S S S S S S S S S S S S    S S S S S S S S S S S S S S S S  
----------------------------------|----------------------------------|
----------------------------------|----------------------------------|
--2-2-2-2-2-2-2-2-2-2-2-2-2-2-2-2-|--2-2-2-2-2-2-2-2-2-2-2-2-2-2-2-2-|
----------------------------------|----------------------------------|
 Next thing I remember               Through the pandemonium

  S S S S S S S S S S S S S S S S    Q    Q    Q    Q     
----------------------------------|----------------------|
----------------------------------|----------------------|
--2-2-2-2-2-2-2-2-2-2-2-2-2-2-2-2-|--2---------2---------|
----------------------------------|----------------------|
 It was feelin' like a nightmare   That bites right 

  E.  E.  E  Q    Q       S S S S S S S S S S S S S S S S  
-----------------------|----------------------------------|
-----------------------|----------------------------------|
--2---2---2--2---------|--7-7-7-7-7-7-7-7-7-7-7-7-7-7-7-7-|
-----------------------|----------------------------------|
 into my skin             Colorado 

  S S S S S S S S S S S S S S S S    Q    Q    Q    Q     
----------------------------------|--7---------2---------|
----------------------------------|--7---------2---------|
--7-7-7-7-7-7-7-7-7-7-7-7-7-7-7-7-|--5---------0---------|
----------------------------------|----------------------|
 bulldog                           This night has gone 

  S S S S S S S S S S S S S S S S    S S S S S S S S S S S S S S S S  
----------------------------------|----------------------------------|
----------------------------------|----------------------------------|
--7-7-7-7-7-7-7-7-7-7-7-7-7-7-7-7-|--7-7-7-7-7-7-7-7-7-7-7-7-7-7-7-7-|
----------------------------------|----------------------------------|
 to my head                          Colorado 

  S S S S S S S S S S S S S S S S    Q    Q    Q    E  E   
----------------------------------|--7---------2----------|
----------------------------------|--7---------2----------|
--7-7-7-7-7-7-7-7-7-7-7-7-7-7-7-7-|--5---------0----0--2--|
----------------------------------|-----------------------|
  Bulldog                           Throw a leash around 

  E  S E  S E  E  S E  S E     E  S E  S E  E  S E  S E   
----------------------------|----------------------------|
----------------------------|----------------------------|
--3--3-3--3-3--5--5-5--5-5--|--3--3-3--3-3--5--5-5--5-5--|
----------------------------|----------------------------|
  my neck                   Turn around and run like

  S S S S S S S S S S S S S S S S    S S S S S S S S S S S S S S S S  
----------------------------------|----------------------------------|
----------------------------------|----------------------------------|
--7-7-7-7-7-7-7-7-7-7-7-7-7-7-7-7-|--7-7-7-7-7-7-7-7-7-7-7-7-7-7-7-7-|
----------------------------------|----------------------------------|
   Colorado                         Bulldog

                             T     T     T     T     T     T     T     T  
                         |-6-| |-6-| |-6-| |-6-| |-6-| |-6-| |-6-| |-6-|  
  Q    Q    Q    Q       S S S S S S S S S S S S S S S S S S S S S S S S  
--7---------2---------|--7-8-9-7-8-9-7-8-9-7-8-9-7-8-9-7-8-9-7-8-9-7-8-9-|
--7---------2---------|--------------------------------------------------|
--5---------0---------|--------------------------------------------------|
----------------------|--------------------------------------------------|
 This night has gone to my head

  S S S S S S S S S S S S S S S S    S S S S S S S S S S S S S S S S  
----------------------------------|----------------------------------|
----------------------------------|----------------------------------|
--7-7-7-7-7-7-7-7-7-7-7-7-7-7-7-7-|--7-7-7-7-7-7-7-7-7-7-7-7-7-7-7-7-|
----------------------------------|----------------------------------|
 Colorado                           Bulldog

  Q    Q    Q    E  E     E  S E  S E  E  S E  S E   
--7---------2----------|----------------------------|
--7---------2----------|----------------------------|
--5---------0----0--2--|--3--3-3--3-3--5--5-5--5-5--|
-----------------------|----------------------------|
 Throw a leash around  my neck   Bottoms up ,

  E  S E  S E  E  S E  S E     E  S E  S E  E  S E  S E   
----------------------------|----------------------------|
----------------------------|----------------------------|
--3--3-3--3-3--5--5-5--5-5--|--7--7-7--7-7--9--9-9--9-9--|
----------------------------|----------------------------|
 down the hatch          It's time to start all over again

  |-3-| |-3-|  |--3--|  |--3--| |-3-| |-3-| |-3-|  |--3--|  
  S S S S S S  S  S  S  S  S  S S S S S S S S S S  S  S  S  
--------------------------------------9-9-9-------12-12-12-|
--------9-9-9----------12-12-12-7-7-7-------9-9-9----------|
--7-7-7-------10-10-10-------------------------------------|
-----------------------------------------------------------|


  |-3-|  |--3--|  |--3--| |-3-|  |--3--|  |--3--|  |--3--|  |--3--|  
  S S S  S  S  S  S  S  S S S S  S  S  S  S  S  S  S  S  S  S  S  S  
--------------------------------------------------------------------|
--0-0-0-------------------9-9-9----------12-12-12----------14-14-14-|
--------12-12-12----------------10-10-10----------12-12-12----------|
-----------------12-12-12-------------------------------------------|


   |--3--|  |--3--|  |--3--|  |--3--| |-3-|  |--3--| |-3-| |-3-|  
   S  S  S  S  S  S  S  S  S  S  S  S S S S  S  S  S S S S S S S  
-----------16-16-16----------14-14-14-------12-12-12-------9-9-9-|
--14-14-14----------12-12-12----------9-9-9----------7-7-7-------|
-----------------------------------------------------------------|
-----------------------------------------------------------------|


   |--3--|  |--3--| |-3-| |-3-| |-3-| |-3-| |-3-| |-3-|                      
   S  S  S  S  S  S S S S S S S S S S S S S S S S S S S    W                 
--------------------------------------------------------|-------------------|
-----------12-12-12-------9-9-9-------7-7-7-------------|-------------------|
--10-10-10----------7-7-7-------5-5-5-------------7-7-7-|-------------------|
--------------------------------------------7-7-7-------|--0----------------|


  W                  
-------------------||
-------------------||
--0----------------||
-------------------||




Duration Legend
---------------
W - whole
H - half
Q - quarter
E - 8th
S - 16th
T - 32nd
X - 64th
. - note dotted
|-n-|  - n-tuplets


Tablature Legend
----------------
L - tied note
x - dead note
g - grace note
(n) - ghost note
> - accentuded note
NH - natural harmonic
AH - artificial harmonic
TH - tapped harmonic
SH - semi harmonic
PH - pitch harmonic
h - hammer on
p - pull off
b - bend
br - bendRelease
pb - preBend
pbr - preBendRelease
brb - bendReleaseBend
\n/ - tremolo bar dip
\n - tremolo bar dive
-/n - tremolo bar Release up
/n\ - tremolo bar inverted dip
/n - tremolo bar return
-\n - tremolo bar Release down
S - shift slide
s - legato slide
/ -  slide into from below or out of upwards
\ -  slide into from above or out of downwards
~ - vibrato
W - wide vibrato
tr - trill
TP - tremolo picking
T - tapping
S - slap
P - pop
< - fade in
^ - brush up
v - brush down



comments
print report bad tab
I want to post or [tab]
guest
You may want to rate the tab now too:
select rating
Please do not post tabs as comments. Select "correction" instead!