Oops, an error
Loading. Please wait.

Goin Where The Wind Blows Tab

version 1
version 1

Whole song

Interactive

41,338 views 123 this week
1 commentread comment
1 2 3 4 5
x 9
add to favorites
launch autoscroll
font size
0
reset
how to read this tab
guitar tuner
Autoscroll
slow
fast
+/-
esc
set tempo
stop
Help us to improve Ultimate-Guitar.com Take our survey!
×
[Verse]

  Asus2                           A
   Someone said life is for the taking
  Asus2                A      Asus2      Eadd9     [Fill 1]
   here I am with my hand out waiting for a ride

[Fill 1]
  Eadd9              E     F#7add4    Eadd9    E         Esus4   E
e|-------2---------|-----------------|-------2-----0---|-------0-0----0--|
B|-------0-----0---|-----------0-----|-------0-----0---|----0--0-0----0--|
G|---------------1-|---1---1/3---3---|-----1-----1-----|-1--2--2-1-1--1--|
D|-----2-----------|---2---2/4-----4-|---2-------------|-2--2----2-2--2--|
A|---2-------------|---2---2/4-------|-----------------|-2--2------2--2--|
E|-0---------------|-0---0-0---------|-0---------------|-----------0--0--|
   1 . 2 . 3 . 4 .   1 . 2 . 3 . 4 .   1 . 2 . 3 . 4 .   1 . 2 . 3 . 4 .

  Asus2                            A
   I've been living on my great expectation
  Asus2                      A
   what good is it when I'm stranded here
      Asus2          Eadd9    [Fill 1]
   and world just passes by
E/sl. F#7add4            [Fill A]
      where are the signs
     /sl. Aadd2               /sl. Badd4  [Fill B]
      to help me get out of this place

   [Fill A]                 [Fill B]
   e|---------0-------|    e|-----0-----------|
   B|-----0-------0---|    B|---------4-------|
   G|-3---------------|    G|-------------4---|
   D|-----------------|    D|-----------------|
   A|-----------------|    A|-----------------|
   E|-----------------|    E|-----------------|
      1 . 2 . 3 . 4 .         1 . 2 . 3 . 4 .


[Chorus]

         E           Asus2                   C#m7sus4   7
          If I should stumble on my moment in time,
                    Bsus4  B
          how will I know
         E      Asus2                 C#m7sus4  7
          if the story's written on my face,
                  Bsus4   B
          does it show
                       Asus2   Bsus4    C#m
          Am I strong enough to walk on water
                 Asus2           Bsus4   C#m
          Smart enough to come in out of rain
                  Asus2 _|
          or am I fool
                                    E [Fill 2]  Badd4    Aadd2
          going where the wind blows
                          E [Fill 2]  Badd4    Aadd2
          where the wind blows

[Fill 2]
e|------------------------/-\------------------------|
B|-------12-12-12-12----10-|-10--9-------------------|
G|-------------------9-----|--------11-9-/11-9-------|
D|-------------------------|-------------------------|
A|-------------------------|-------------------------|
E|-------------------------|-------------------------|
   1  .  2  .  3  .  4  .     1  .  2  .  3  .  4  .


[Verse]

   Here I sit halfway to somewhere
   thinking 'bout what's in front of me and what I left behind
   on my own, supposed to be so easy
   is this what I've been after
   or have I lost my mind
     maybe this is my big chance coming to take me away


[Chorus]

          If I should stumble on my moment in time, how will I know
          if the story's written on my face, does it show
          Am I strong enough to walk on water
          Smart enough to come in out of rain
          or am I fool going where the wind blows


[Bridge]

   Asus2               C#m
     Here I am, walking naked through the world
    Asus2                 E
     taking up space, society's child
         Bsus4
     make room for me, make room for me, make room for me

[Solo]
   E                 Asus2             C#m7             Bsus4      +-3-+
e|-------------h---p------------------|------------h--p-------h-p--|---|-|
B|-10/12-----10^12-^-10--10~-10-9-7---|-7/9-------7^9-^-7----5^7^5-4-5-7-|
G|-----------------|----------------9-|---------------|------------------|
D|-----------------|------------------|---------------|------------------|
A|-----------------|------------------|---------------|------------------|
E|-----------------|------------------|---------------|------------------|
   1  . 2  3  4 .    1 . 2 . 3  . 4 .   1 . 2  3  4 .   1 . 2 . 3 . 4 .
e|-------------h---|------------------|------------h--|------------------|
B|--7/9-------7^9--|-5---5~--7--5-4---|-4/5-------4^5-|------------------|
G|-----------------|----------------6-|---------------|-4----------------|
D|-----------------|------------------|---------------|------------------|
A|-----------------|------------------|---------------|------------------|
E|-----------------|------------------|---------------|------------------|

   E                Asus2             C#m7                Bsus4
e|-----------------|--------------p--|----7--9-/9--7----|-------------|
B|-5---------------|-------------7^5-|/9-----|--|-----9-|-7-----------|
G|-----4-4-------4-|----9------------|-|-----|--|-----|-|-------------|
D|-----------------|/11--------------|-+==3==+--+==3==+-|-------------|
A|-----------------|-----------------|------------------|-------------|
E|-----------------|-----------------|------------------|-------------|
   1 . 2 . 3 . 4 .   1 . 2 . 3 . 4 .   1 . 2 .  3 . 4 .   1  2  3  4
e|-4---------------|-----------------|------------------|-------------|
B|-----5-5-------5-|---10---------p--|----7--9-/9--7----|-------------|
G|-----------------|/9-----------6^4-|/9-----|--|-----9-|-8-----------|
D|-----------------|-----------------|-|-----|--|-----|-|-------------|
A|-----------------|-----------------|-+==3==+--+==3==+-|-------------|
E|-----------------|-----------------|------------------|-------------|

[Solo| 3rd guitar, acc.]                          +--------        +-----
   E               Asus2           C#m            | 1  Bsus4       | 2
e|---------0------|--------0------|------4----0---|------------0---|-0---|
B|-----0---0------|--------0----0-|-------------0-|---------0------|-0---|
G|---1--------1---|-----2-----2---|-6--6----------|-------4------4-|-4---|
D|---2----------2-|---2-----------|-6-------------|-----4----------|-4---|
A|-------2--------|-0-------------|-4-------------|---2------------|-2---|
E|-0--------------|---------------|---------------|-0--------------|-0---|
   1 . 2 . 3  4 .   1 . 2  3  4 .   1 . 2  3  4 .   1 . 2 . 3  4 .

                       Asus2   Bsus4    C#m
          Am I strong enough to walk on water
                 Asus2           Bsus4   C#m
          Smart enough to come in out of rain
                  Asus2    [Fill 3]
          or am I fool

[Fill 3]
   A      sus4      A
e|-------------------------|
B|-10------10-------10-----|
G|--9-------9--------9-----|
D|-11------12-------11-----|
A|-------0--0-----0--------|
E|-------------------------|
   1  .  2  .  3  .  4  .

                                    E [Fill 2]  Badd4    Aadd2
          going where the wind blows
                         E [Fill 2]  Badd4    Aadd2
          where the wind blows
             E [Fill 2]  Badd4    Aadd2
          ye
                                   E [Fill 2]  Badd4    Aadd2
          ye, goin' where the wind blows
          E [Fill 2]  Badd4    Aadd2
          na nana na na na
          E [Fill 2]  Badd4    Aadd2    [End]
          na nana na na na

[End]

e|<12>---------------------|
B|------<12><12>-----------|
G|-------------------------|
D|-------------------------|
A|-------------------------|
E|-------------------------|
   1  .  2  .  3  .  4  .





Unusual chords (in the form| [EADGBe]

  Asus2 [x02200]    Eadd9 [022102]     F#7add4 [x44300]   Aadd2 [x77600]
  Badd4 [x99800]    C#m7sus4 [x46464]  Bsus4 [x24400]



************************************

| h  Hammer-on
| p  Pull-off
| <> Harmonics
| /  Slide up
| \  Slide down
| ~  Vibrato

************************************
Suggest correction
comments
print report bad tab
1 comment total.
0 reply
coupets 23 Jun 20, 2015 03:12 AM

Thanks man, awesome tabs!

guest
You may want to rate the tab now too:
select rating
Wanna post a correction for this tab? Suggest correction