Oops, an error
Loading. Please wait.

Green-Tinted Sixties Mind tab

version 2
version 2

Whole song

  • This version is different than the one here and is... Show more
by Mr. Big
163 views 3 this week
no commentswrite comment
1 2 3 4 5
3 more votes to show rating
add to favorites
×
Save as Personal and add changes to this tab that will be seen only by you. Learn more ›
×
You can save this tab as Personal to edit and correct it or add notes. All changes will be seen only by you. Learn more »
launch autoscroll
font size
0
reset
how to read this tab
guitar tuner
edit
Autoscroll
slow
fast
+/-
esc
set tempo
stop
Author
Difficulty
intermediate
About this tab version
This version is different than the one here and is written for the complete version. Was this info helpful? Yes No
Transcribed by Music One
Mr. Big - Green Tinted Sixties Mind
Tuning E
E-A-D-G-B-e

[Intro]

        h  p     h  p  p        h  h  h  h  h   tap  p  p    
e |--0--2--0-----0--7--5--0--|--------0--5--7--(12)--7--5--|
B |-----------0--------------|-----------------------------|
G |--------------------------|--2--4-----------------------|
D |--------------------------|-----------------------------|
A |--------------------------|-----------------------------|
E |--------------------------|-----------------------------|

                                                +----------                +---------
                                                | 1,2,3                    | 4
     tap   h  h    tap  h  h  tap   h     h  p    tap            p   p        tap
e |--(17--10--12--(17)--5--7--(16)--4--0--4--7--|-(12)--s/16--s\-12--7--4--|--(12)/----|
B |------------------------------------------------------------------------|-----------|
G |------------------------------------------------------------------------|-----------|
D |------------------------------------------------------------------------|-----------|
A |------------------------------------------------------------------------|-----------|
E |------------------------------------------------------------------------|-----------|

  4/4                     
e |--------------|--------------|---------0-------|---------------------|
B |--9---10------|--------------|-----------0-----|------0--------------|
G |--9----9------|--7----9------|--1---2------2---|----2----2-----------|
D |--------------|--7----9------|--2---2----------|---------2------2----|
A |--------------|--------------|-----------------|--2------0------2----|
E |----0------0--|----0---------|--2---2----------|----------------0----|


[Verse 1]
                             +     +                  
e |--0-----------|--------------|--12-----------|
B |--0-----------|-----------12-|---------------|
G |--------------|--------------|---------------|
D |--2-----------|--------------|---------------|  Repeat
A |--2-----------|--------------|---------------|
E |--0-----------|--------------|---------------|

[Bridge]
                                       
e |--------------------------------|------------------------------|
B |--10--10--10--9----------9------|--10--10--10--9--------9------|
G |---9---9---9--9----------9------|---9---9---9--9--------9------|
D |---9---9---9--9----------9------|---9---9---9--9--------9------|
A |--------------------------------|------------------------------|
E |-----------------10--10-----9---|-----------------9--9-----7---|

     
e |--------------------------------|------------------------------|
B |--9--9--9-----7--7--7-----------|--12--12--12--10--10----------|
G |--9--9--9-----8--8--8-----------|--12--12--12--11--11----------|
D |--9--9--9-----9--9--9-----------|--12--12--12--12--12----------|
A |-----------7-----------10-------|----------------------19\-----|
E |--------------------------------|------------------------------|


[Chorus]
                                                           +  +
e |----0-----0---|----0-----0---|----0---0--------|--0--------12--------|
B |----0-----0---|----0-----0---|----0---0--------|----0---12-----------|
G |--------------|--------------|-------------2---|---------------------|
D |--------------|--------------|-------------2---|---------------------|
A |--0---0-0-----|--2---2-2-----|--4---4------0---|---------------------|
E |--------------|--------------|-----------------|----------------19\--|

                                                                           
e |----0-----0---|----0---0-----|---------0-------|---------------------|
B |----0-----0---|----0---0-----|-----2-----2-----|---------------------|
G |--------------|--------------|---1---1-----1---|--2---------4--------|
D |--------------|--------------|-----------------|--2---------4--------|
A |--4---4-4-----|--2---2----1--|-----------------|--0---------2--------|
E |--------------|--------------|-----------------|---------------------|

[Intro 2]

e |--------------|--------------|---------0-------|---------------------|
B |--9---10------|--------------|-----------0-----|------0--------------|
G |--9----9------|--7----9------|--1---2------2---|----2----2-----------|
D |--------------|--7----9------|--2---2----------|---------2------2----|
A |--------------|--------------|-----------------|--2------0------2----|
E |----0------0--|----0---------|--2---2----------|----------------0----|

[Verse 2]
                             +     +                  
e |--0-----------|--------------|--12-----------|
B |--0-----------|-----------12-|---------------|
G |--------------|--------------|---------------|
D |--2-----------|--------------|---------------|  Repeat
A |--2-----------|--------------|---------------|
E |--0-----------|--------------|---------------|

[Bridge]
                                       
e |--------------------------------|------------------------------|
B |--10--10--10--9----------9------|--10--10--10--9--------9------|
G |---9---9---9--9----------9------|---9---9---9--9--------9------|
D |---9---9---9--9----------9------|---9---9---9--9--------9------|
A |--------------------------------|------------------------------|
E |-----------------10--10-----9---|-----------------9--9-----7---|

     
e |--------------------------------|------------------------------|
B |--9--9--9-----7--7--7-----------|--12--12--12--10--10----------|
G |--9--9--9-----8--8--8-----------|--12--12--12--11--11----------|
D |--9--9--9-----9--9--9-----------|--12--12--12--12--12----------|
A |-----------7-----------10-------|----------------------19\-----|
E |--------------------------------|------------------------------|

[Chorus]
                                                           +  +
e |----0-----0---|----0-----0---|----0---0--------|--0--------12--------|
B |----0-----0---|----0-----0---|----0---0--------|----0---12-----------|
G |--------------|--------------|-------------2---|---------------------|
D |--------------|--------------|-------------2---|---------------------|
A |--0---0-0-----|--2---2-2-----|--4---4------0---|---------------------|
E |--------------|--------------|-----------------|----------------19\--|

                                                                          
e |----0-----0---|----0---0-----|---------0-------|---------------------|
B |----0-----0---|----0---0-----|-----2-----2-----|---------------------|
G |--------------|--------------|---1---1-----1---|--2---------4--------|
D |--------------|--------------|-----------------|--2---------4--------|
A |--4---4-4-----|--2---2----1--|-----------------|--0---------2--------|
E |--------------|--------------|-----------------|---------------------|

[Solo]
  4/4
 
                           ~~          ~~        ~~           ~~                  ~~~~~  
e |---------------------|---------------------|----------------------|-------------------|
B |---------------------|---------------------|----------------------|-------------------|
G |--------------13-14--|--13----------13-14--|--13-----------13-14--|--13--------13-14--|
D |---------------------|------14\------------|------14-----14-------|--14--14\---14-14--|
A |---------------------|---------------------|--------14------------|-------------------|
E |---------------------|---------------------|----------------------|-------------------|
  
(Rhythm)                         

e |---------------------|-------0-------------|---------0------0-----|------0------------|
B |---------------------|-------0-------------|---------0------0-----|------0------------|
G |---------------------|---------------------|----------------------|-------------------|
D |---------------------|---------------------|----------------------|-------------------|
A |---------------------|---------------------|----------------------|--4-------4-4-4-4--|
E |---------------------|--0--------0-0-0-0---|--0-0-0-------0-------|-------------------|

                                  
            b                                                           ~~    ~~~
e |---------------------|---------------------|----------------------|--------------|
B |---------15----------|---------------------|----------------------|--------------|
G |--13--13------13-14--|--13----------13-14--|--13-----16-----8-9---|--8-----8-9---|
D |--14--14------14-----|------14------14-14--|--14--14-14-----9-9---|--9---9-9-9---|
A |---------------------|---------------------|----------------------|--------------|
E |---------------------|---------------------|----------------------|--------------|
                                           
                                                                      5/8
e |---------0-----0-----|------0--------------|---------0------0-----|--------------|
B |---------0-----0-----|------0--------------|---------0------0-----|--------------|
G |---------------------|---------------------|----------------------|--------------|
D |---------------------|---------------------|----------------------|--------------|
A |--4-4-4-----4--------|--5--------5-5-5-5---|--5-5--5------5-------|--2-2-2-2-2---|
E |---------------------|---------------------|----------------------|--------------|


                                                 ~~
e |--------------|--------------|-------------|----------------|
B |--------------|--------------|-------------|----------------|
G |--8-----8-9---|--8-----8-9---|--8----15-16-|--15----15-15---|
D |--9---9-9-9---|--9---9-9-9---|--9--9-------|-----16-16-16---|
A |--------------|--------------|-------------|----------------|
E |--------------|--------------|-------------|----------------|


e |--------------|--------------|-------------|----------------|
B |--------------|--------------|-------------|----------------|
G |--------------|--------------|-------------|----------------|
D |--------------|--------------|-------------|----------------|
A |--------------|--------------|-------------|----------------|
E |--5-5-5-5-5---|--4-4-4-4-4---|--3-3-3-3-3--|--2-2-2-2-2-----|
     
                                       
     ~~               b   h  h  p   ~~                     b      b
e |----------------|------------------------|--------------------------|
B |----------------|--16--14-16-14----------|--------14-17-17-----17---|
G |--15----15-15---|--------------16-15-----|--15-16-------------------|
D |-----16-16-16---|-------------------16---|--------------------------|
A |----------------|------------------------|--------------------------|
E |----------------|------------------------|--------------------------|

                    3/4                      4/4
e |----------------|------------------------|--------------------------|
B |----------------|------------------------|--------------------------|
G |----------------|------------------------|--------------------------|
D |----------------|------------------------|--------------------------|
A |----------------|------------------------|--------------------------|
E |--2-2-2-2-2-----|----2--2--2--2--2--2----|--2--2--2--2--2--2--2--2--|

[Chorus]
                                                           +  +
e |----0-----0---|----0-----0---|----0---0--------|--0--------12--------|
B |----0-----0---|----0-----0---|----0---0--------|----0---12-----------|
G |--------------|--------------|-------------2---|---------------------|
D |--------------|--------------|-------------2---|---------------------|
A |--0---0-0-----|--2---2-2-----|--4---4------0---|---------------------|
E |--------------|--------------|-----------------|----------------19\--|

                                                                  
e |----0-----0---|----0---0-----|---------0-------|---------------------|
B |----0-----0---|----0---0-----|-----2-----2-----|---------------------|
G |--------------|--------------|---1---1-----1---|--2---------4--------|
D |--------------|--------------|-----------------|--2---------4--------|
A |--4---4-4-----|--2---2----1--|-----------------|--0---------2--------|
E |--------------|--------------|-----------------|---------------------|

[Intro]
        p           h  p        h  h     h  h  tap   p      
e |--0--2--0-----0--7--5--0--|--------0--5--7--(12)--7--5--|
B |-----------0--------------|-----------------------------|
G |--------------------------|--2--4-----------------------|
D |--------------------------|-----------------------------|
A |--------------------------|-----------------------------|
E |--------------------------|-----------------------------|
   
(Rhythm)
                                                          
e |--0-----------------------------------------------------|
B |--0-----------------------------------------------------|
G |--9-----------------------------------------------------|
D |--9-----------------------------------------------------|
A |--7-----------------------------------------------------|
E |--0-----------------------------------------------------|
                                                                 
     tap   h   h   tap   h  h  tap   h     h  h    tap            p   p
e |--(17)--10--12--(17)--5--7--(16)--4--0--4--7--|-(12)--s/16--s\-12--7--4--|
B |-------------------------------------------------------------------------|
G |-------------------------------------------------------------------------|
D |-------------------------------------------------------------------------|
A |-------------------------------------------------------------------------|
E |-------------------------------------------------------------------------|
        
e |--(0)--------------------------------------------------------------------|
B |--(0)--------------------------------------------------------------------|
G |--(9)--------------------------------------------------------------------|
D |--(9)--------------------------------------------------------------------|
A |--(7)--------------------------------------------------------------------|
E |--(0)--------------------------------------------------------------------|

        h           h  p        h  h     h  h  tap   p      
e |--0--2--0-----0--7--5--0--|--------0--5--7--(12)--7--5--|
B |-----------0--------------|-----------------------------|
G |--------------------------|--2--4-----------------------|
D |--------------------------|-----------------------------|
A |--------------------------|-----------------------------|
E |--------------------------|-----------------------------|

e |--(0)---------------------------------------------------|
B |--(0)---------------------------------------------------|
G |--(9)---------------------------------------------------|
D |--(9)---------------------------------------------------|
A |--(7)---------------------------------------------------|
E |--(0)---------------------------------------------------|
                    
     tap   h  h  tap   h  h  tap h     h  h    tap            p   p      
e |--(17)--10-12-(17)--5--7--16--4--0--4--7--|-(12)--s/16--s\-12--7--4--|
B |---------------------------------------------------------------------|
G |---------------------------------------------------------------------|
D |---------------------------------------------------------------------|
A |---------------------------------------------------------------------|
E |---------------------------------------------------------------------|

e |--(0)----------------------------------------------------------------|
B |--(0)----------------------------------------------------------------|
G |--(9)----------------------------------------------------------------|
D |--(9)----------------------------------------------------------------|
A |--(7)----------------------------------------------------------------|
E |--(0)----------------------------------------------------------------|

        h           h  p        h  h     h  h  tap   p      
e |--0--2--0-----0--7--5--0--|--------0--5--7--(12)--7--5--| 
B |-----------0--------------|-----------------------------|
G |--------------------------|--2--4-----------------------|
D |--------------------------|-----------------------------|
A |--------------------------|-----------------------------|
E |--------------------------|-----------------------------|
                                                          
e |--(0)---------------------------------------------------|
B |--(0)---------------------------------------------------|
G |--(9)---------------------------------------------------|
D |--(9)---------------------------------------------------|
A |--(7)---------------------------------------------------|
E |--(0)---------------------------------------------------|
                       
     tap   h  h  tap   h  h  tap h     h  h    tap            p   p         
e |--(17)--10-12-(17)--5--7--16--4--0--4--7--|-(12)--s/16--s\-12--7--4--|
B |---------------------------------------------------------------------|
G |---------------------------------------------------------------------|
D |---------------------------------------------------------------------|
A |---------------------------------------------------------------------|
E |---------------------------------------------------------------------|

e |--(0)----------------------------------------------------------------|
B |--(0)----------------------------------------------------------------|
G |--(9)----------------------------------------------------------------|
D |--(9)----------------------------------------------------------------|
A |--(7)----------------------------------------------------------------|
E |--(0)----------------------------------------------------------------|

        h           h  p     h  h     h 
e |--0--2--0-----0--7--5--0--------0--2--0---|
B |-----------0------------------------------|
G |--------------------------2--4------------|
D |------------------------------------------|
A |------------------------------------------|
E |------------------------------------------|

e |--(0)-------------------------------------|
B |--(0)-------------------------------------|
G |--(9)-------------------------------------|
D |--(9)-------------------------------------|
A |--(7)-------------------------------------|
E |--(0)-------------------------------------|                      
  
e |--------------------------------|------------------------------------|
B |--------------------------------|------------------------------------|
G |--------------------------------|------------------------------------|
D |--------------------------------|------------------------------------|
A |--------------------------------|------------------------------------|
E |--------------------------------|------------------------------------|

                                                                       
e |-----------0--------------------|------------------------------------|
B |-----------0--------------------|------------------------------------|
G |--7--7--7--9--------------------|------------------------------------|
D |--7--7--7--9--------------------|------------------------------------|
A |--5--5--5--7--------------------|------------------------------------|
E |-----------0--------------------|------------------------------------|


*******************************

| +   harmonics
| h   hammer on
| p   pull off
| b   Bend
| +   tap on
| ()  ghost note 
| 4/4 timing
| 5/8 timing
| ~   vibrato

*******************************

            
            
Suggest correction
Creating personal tab
Creating personal tab
You can edit any tab online and save it as your Personal.

You can edit, replace or remove any tab part or add personal notes – all changes will be seen only by you.

Personal tabs can be accessed anytime from any device, even offline.
Learn more »
Give kudos to tab author, rate the tab!
1 2 3 4 5
comments
print report bad tab
guest
You may want to rate the tab now too:
select rating
Wanna post a correction for this tab? Suggest correction