Oops, an error
Loading. Please wait.

Green Tinted Sixties Mind Tab

version 2
version 2

Whole song

Interactive

9,384 views 9 this week
no commentswrite comment
1 2 3 4 5
please rate
add to favorites
launch autoscroll
font size
0
reset
how to read this tab
guitar tuner
Tab Pro tools
  • play this tab
  • loop segment
  • change instrument
  • show fretboard
  • metronome
×
Best way to learn
"Green Tinted Sixties Mind"
Autoscroll
slow
fast
+/-
esc
set tempo
stop
#-----------------------------PLEASE NOTE-------------------------------------#
#This OLGA file is the author's own work and represents their interpretation  #
#of the song. You may only use this file for private study, scholarship, or   #
#research. Remember to view this file in Courier, or some other monospaced    #
#font. See http://www.olga.net/faq/ for more information.                     #
#-----------------------------------------------------------------------------#

Date: Tue, 7 Dec 1999 10:02:13 -0800 (PST)
From: Cristian "'Sócrates'" Franco 
Subject: m/mr_big/green_tinted_sixties_mind.tab


additions From: "Alex Marini" 
arranged by: Sócrates 


GREEN-TINTED SIXTIES MIND      ( Mr. Big )
=========================

Thanks to PANFI (my friend Federico, from
Cadidavid-VERONA) for the CDs.
The tab was in the archive, I added the complete lyric
and the chords.
Enjoy!


The introduction to this song is very tricky, the
first impression you get
is that it's some kind of backward tape recording but
no!!!, It's just 
Paul's guitar with distortion and some kind of octave
or harmonizer effect 
(sounding one octave lower or higher) to achieve his
unique soloing 
TONE!! Anyways, Paul uses mostly a
pick/hammer/sliding/tapping technique
in which the use of both hands is probably the right
choice to play the         
        
introduction. It's a very cool song, it should really
impress anyone if 
it's performed live.

This should be ok for the first part of the song, if
someone wants to post
the rest it's fine, e mail me at:
oandrade@impsat.net.ec


b=bend          
r=release          
tr=trill            
*=mute strings
( )= let ring previous note
[ ]= harmonic note(probably played on the 12th fret)
t= tap (with right hand index finger)

p= pick (either with right hand fingers or left hand
ring finger,               
                                                      
  whichever is easier 4 U)


h=hammer on (done with left hand fingers)
po= pull off (done with left hand fingers)

s/=slide up. Example: 12t-s/-16 (tap 12 first, then
slide up untill fret 16)
s\=slide down. Example: 16-s\-12( slide down from fret
16 to fret 12)
~=vibrato
|=end of bar
%=repeat last bar

Note from Sócrates: I made a few corrections on the
Intro/Outro section, I think that it sounds better so.
The rest of the song be so well.
  When I get the solo I'll post it.

[Intro/Outro]

    h po      h po po    h   h    h  tap  po po    tap
   h  h
e:-0^2^0---|-0^7^5^0--|-----0^5--|^7-(12)-^7^5---|-(17)-^9^12^17----|
B:-------0-|----------|----------|---------------|------------------|
G:---------|----------|-2^4------|---------------|------------------|
D:---------|----------|----------|---------------|------------------|
A:---------|----------|----------|---------------|------------------|
E:---------|----------|----------|---------------|------------------|

                                  +----------  
+--------
                                  | 1,2,3       | 4
     h       po   po h h  tap     |       h h   |
e:--5^7-(16)-^4--|-^0^4^7-(12)-s/-16-s\-12^7^4--|-s/-16/---------|
B:---------------|---------------|--------------|----------------|
G:---------------|---------------|--------------|----------------|
D:---------------|---------------|--------------|----------------|
A:---------------|---------------|--------------|----------------|
E:---------------|---------------|--------------|----------------|

[Fig 1]
     E                                  Esus4
|------------------|----------------|---------------|----------------------|
|----9-------------|--------*-------|-----10--------|---------(10)---------|
|----9-------------|--------*-------|-----9---------|---------(9)----------|
|----9-------------|--------*-------|-----9---------|---------(9)----------|
|----7-------------|--------*-------|-----7---------|---------(7)----------|
|------------------|----------------|---------------|----------------------|

     D5                                   E5
|------------------|----------------|---------------|----------------------|
|------------------|----------------|---------------|----------------------|
|----7-------------|--------*-------|-----9---------|-------(9)------------|
|----7-------------|--------*-------|-----9---------|-------(9)------------|
|----5-------------|--------*-------|-----7---------|-------(7)------------|
|------------------|----------------|---------------|----------------------|

     E                                   Esus4
|------------------|----------------|---------------|-0--------------------|
|------------------|----------------|---------------|---0------------------|
|----1-------------|--------*-------|-----2---------|-----2----------------|
|----2-------------|--------*-------|-----2---------|----------------------|
|----2-------------|--------*-------|-----2---------|----------------------|
|------------------|----------------|---------------|----------------------|

    B5 A5 B5 A5                           E
|-----------------------------------|---------------|----------------------|
|-----------------------------------|---------------|----------------------|
|----4--2--4--2-(2)-----------------|-----9---------|-------(9)------------|
|----4--2--4--2-(2)-----------------|-----9---------|-------(9)------------|
|----2--0--2--0-(0)-----------------|-----7---------|-------(7)------------|
|-----------------------------------|---------------|----------------------|

[Fig 2]
    (Harmonics)      (With tremolo bar)
|-------[12]-------|--(12)~~~-------|---------------|----------------------|
|---[12]-----------|--(12)~~~-------|---------------|----------------------|
|------------------|----------------|---------------|----------------------|
|------------------|----------------|---------------|----------------------|
|------------------|----------------|---------------|----------------------|
|------------------|----------------|---------------|----------------------|


 E    Esus4      D5        E5        E      Esus4   
               D5        E5      [Fig 2]
 E    Esus4      D5        E5        E      Esus4     

                  Esus4/D   E/D
   C#m7
  E/B        B               G/D          D

          E

[Chorus] 
         F#m
         E/G#                      A
         C#m7 
         Bsus4                 A#m7b5 [x12120]
            A            B       E     [Fig 1]
   

[Chorus]  

[Solo]   |E   |E/C#  |E/D  |B   |B/A   |B/G#   |B/G   
|F#   |     |
          4/4               5/8                       
 3/4   4/4

[Chorus]  

[Outro]    ( - U can't hide - )
comments
We did not receive enough feedback on this tab! Please rate:
print report bad tab
1 2 3 4 5
I want to post or [tab]
guest
You may want to rate the tab now too:
select rating
Please do not post tabs as comments. Select "correction" instead!