Oops, an error
Loading. Please wait.

Greentinted Sixties Mind Tab

1,494 views 1 this week
no commentswrite comment
1 2 3 4 5
excellent!
x 5
add to favorites
launch autoscroll
font size
0
reset
how to read this tab
guitar tuner
Tab Pro tools
  • play this tab
  • loop segment
  • change instrument
  • show fretboard
  • metronome
×
Best way to learn
"Greentinted Sixties Mind"
Autoscroll
slow
fast
+/-
esc
set tempo
stop
Contributor
Difficulty
intermediate
     MR BIG - GREEN TINTED SIXTIES MIND 


INTRO
                                        T       
     S  S  S S S  S  S  S S  S S  S  S  S S  S  
E||--0h-2p-0---0h-7p-5p-0------0h-5h-7-12-7p-5-|
B||----------0---------------------------------|
G||-----------------------2h-4-----------------|
D||--------------------------------------------|
A||--------------------------------------------|
E||--------------------------------------------|


   T         T       T             T               
   S  S   S  S S  S  S S  S  S  S  S   S   S S  S  
--17-10h-12-17-5h-7-16-4p-0h-4h-7-12s-16s-12-7p-4-|
--------------------------------------------------|
--------------------------------------------------|
--------------------------------------------------|
--------------------------------------------------|
--------------------------------------------------|


                                     T       
  S  S  S S S  S  S  S S  S S  S  S  S S  S  
--0h-2p-0---0h-7p-5p-0------0h-5h-7-12-7p-5-|
----------0---------------------------------|
-----------------------2h-4-----------------|
--------------------------------------------|
--------------------------------------------|
--------------------------------------------|


   T         T       T             T               
   S  S   S  S S  S  S S  S  S  S  S   S   S S  S  
--17-10h-12-17-5h-7-16-4p-0h-4h-7-12s-16s-12-7p-4-|
--------------------------------------------------|
--------------------------------------------------|
--------------------------------------------------|
--------------------------------------------------|
--------------------------------------------------|


                                     T       
  S  S  S S S  S  S  S S  S S  S  S  S S  S  
--0h-2p-0---0h-7p-5p-0------0h-5h-7-12-7p-5-|
----------0---------------------------------|
-----------------------2h-4-----------------|
--------------------------------------------|
--------------------------------------------|
--------------------------------------------|


   T         T       T             T               
   S  S   S  S S  S  S S  S  S  S  S   S   S S  S  
--17-10h-12-17-5h-7-16-4p-0h-4h-7-12s-16s-12-7p-4-|
--------------------------------------------------|
--------------------------------------------------|
--------------------------------------------------|
--------------------------------------------------|
--------------------------------------------------|


                                     T       
  S  S  S S S  S  S  S S  S S  S  S  S S  S  
--0h-2p-0---0h-7p-5p-0------0h-5h-7-12-7p-5-|
----------0---------------------------------|
-----------------------2h-4-----------------|
--------------------------------------------|
--------------------------------------------|
--------------------------------------------|


   T         T       T             T                                          
   S  S   S  S S  S  S S  S  S  S  S   S   S S S   
--17-10h-12-17-5h-7-16-4p-0h-4h-7-12s-16s-24-----|
-------------------------------------------------|
-------------------------------------------------|
-------------------------------------------------|
-------------------------------------------------|
-------------------------------------------------|



OUTRO

                                                        
   S  S  S S S  S  S  S S  S S  S  S  S S  S  
|--0h-2p-0---0h-7p-5p-0------0h-5h-7-12-7p-5-|
|----------0---------------------------------|
|-----------------------2h-4-----------------|
|--------------------------------------------|
|--------------------------------------------|
|--------------------------------------------|


   T         T       T             T               
   S  S   S  S S  S  S S  S  S  S  S   S   S S  S  
--17-10h-12-17-5h-7-16-4p-0h-4h-7-12s-16s-12-7p-4-|
--------------------------------------------------|
--------------------------------------------------|
--------------------------------------------------|
--------------------------------------------------|
--------------------------------------------------|


                                     T       
  S  S  S S S  S  S  S S  S S  S  S  S S  S  
--0h-2p-0---0h-7p-5p-0------0h-5h-7-12-7p-5-|
----------0---------------------------------|
-----------------------2h-4-----------------|
--------------------------------------------|
--------------------------------------------|
--------------------------------------------|


   T         T       T             T               
   S  S   S  S S  S  S S  S  S  S  S   S   S S  S  
--17-10h-12-17-5h-7-16-4p-0h-4h-7-12s-16s-12-7p-4-|
--------------------------------------------------|
--------------------------------------------------|
--------------------------------------------------|
--------------------------------------------------|
--------------------------------------------------|


                                     T       
  S  S  S S S  S  S  S S  S S  S  S  S S  S  
--0h-2p-0---0h-7p-5p-0------0h-5h-7-12-7p-5-|
----------0---------------------------------|
-----------------------2h-4-----------------|
--------------------------------------------|
--------------------------------------------|
--------------------------------------------|


   T         T       T             T               
   S  S   S  S S  S  S S  S  S  S  S   S   S S  S  
--17-10h-12-17-5h-7-16-4p-0h-4h-7-12s-16s-12-7p-4-|
--------------------------------------------------|
--------------------------------------------------|
--------------------------------------------------|
--------------------------------------------------|
--------------------------------------------------|


  S  S  S S S  S  S  S S  S S  S  Q       H        H                      
--0h-2p-0---0h-7p-5p-0------0h-2p-0----|--0-----------------|-----------||
----------0----------------------------|--------------------|-----------||
-----------------------2h-4------------|--------------------|-----------||
---------------------------------------|--------------------|-----------||
---------------------------------------|--------------------|-----------||
---------------------------------------|--------------------|-----------||




Tablature Legend
----------------
L - tied note
x - dead note
g - grace note
(n) - ghost note
> - accentuded note
NH - natural harmonic
AH - artificial harmonic
TH - tapped harmonic
SH - semi harmonic
PH - pitch harmonic
h - hammer on
p - pull off
b - bend
br - bendRelease
pb - preBend
pbr - preBendRelease
brb - bendReleaseBend
\n/ - tremolo bar dip
\n - tremolo bar dive
-/n - tremolo bar Release up
/n\ - tremolo bar inverted dip
/n - tremolo bar return
-\n - tremolo bar Release down
S - shift slide
s - legato slide
/ -  slide into from below or out of upwards
\ -  slide into from above or out of downwards
~ - vibrato
W - wide vibrato
tr - trill
TP - tremolo picking
T - tapping
S - slap
P - pop
< - fade in
^ - brush up
v - brush down
comments
print report bad tab
I want to post or [tab]
guest
You may want to rate the tab now too:
select rating
Please do not post tabs as comments. Select "correction" instead!