Oops, an error
Loading. Please wait.

Lucky This Time Tab

version 1
version 1

Whole song

Interactive

by Mr. Big
3,423 views 6 this week
no commentswrite comment
1 2 3 4 5
x 4
add to favorites
launch autoscroll
font size
0
reset
how to read this tab
guitar tuner
Autoscroll
slow
fast
+/-
esc
set tempo
stop
Author
Difficulty
intermediate
Mr.Big - CDFF Lucky This Time                             





             E  E  E  E  E  E  E  E     E  E  E  E  Q    Q     
e|-------|-----------------------x--|--------------3----3----|
B|-------|--3--x--x--3--x--x--x--x--|--3--x--x--3--3----3----|
G|-------|--2--x--x--2--x--x--x--x--|--2--x--x--2--0----0----|
D|-------|--0--x--x--0--x--x--x--x--|--0--x--x--0--0----0----|
A|-------|-----x--x-----x--x--x--x--|-----x--x---------------|
E|-------|--------------------------|--------------3----3----|

                                                    [w/ Fill 1]
    E  E  E  E  E  E  Q        Q    Q    Q    Q       E  E  E  E  E  E  E  E   
e|--------------------------|-------3--------------|-----------------------x--|
B|--3--x--x--3--x--x--3\----|--3----3--------------|--3--x--x--3--x--x--x--x--|
G|--2--x--x--2--x--x--2\----|--2----0----0---------|--2--x--x--2--x--x--x--x--|
D|--0--x--x--0--x--x--x-----|--0---------0----3----|--0--x--x--0--x--x--x--x--|
A|-----x--x-----x--x--x-----|-------3---------3----|-----x--x-----x--x--x--x--|
E|--------------------------|----------------------|--------------------------|


                                              NH   NH                           
    E  E  E  E  Q    Q       E  E  E  E  E    E    Q       Q    Q    Q    Q     
e|------------------------|-----------------------------|------------3---------|
B|--3--x--x--3--3----3----|--3--x--x--3--x-------<>7----|--3----3----3----6----|
G|--2--x--x--2--0----0----|--2--x--x--2--x--<>5---------|--2----0----0----5----|
D|--0--x--x--0--0----0----|--0--x--x--0--x--------------|--0----2---------3----|
A|-----x--x---------------|-----x--x-----x--------------|-----------------3----|
E|------------------------|-----------------------------|----------------------|

                                             
    E  E  E  E  E  E  E  E     E  E  E  E  Q    Q     
e|--------------------------|--------------3----3----|
B|--3--x--x--3--x--x--x--x--|--3--x--x--3--3----3----|
G|--2--x--x--2--x--x--x--x--|--2--x--x--2--0----0----|
D|--0--x--x--0--x--x--x--x--|--0--x--x--0------------|
A|-----x--x-----x--x--x--x--|-----x--x---------------|
E|--------------------------|------------------------|
  Lost and alone in this city of darkness

    E  E  E  E  E  E  E  E     Q    Q    E  E  E  E     E  E  E  E  E  E  E  E   
e|--------------------------|------------------------|--------------------------|
B|--3--x--x--3--x--x--x--x--|--3---------------1--L--|--3--x--x--3--x--x--x--x--|
G|--2--x--x--2--x--x--x--x--|--2----5----0--2--L--2--|--2--x--x--2--x--x--x--x--|
D|--0--x--x--0--x--x--x--x--|--0----5----0-----------|--0--x--x--0--x--x--x--x--|
A|-----x--x-----x--x--x--x--|-------3----------------|-----x--x-----x--x--x--x--|
E|--------------------------|------------------------|--------------------------|
  Empty of lovers and        full of lies           You build a wall between 

    E  E  E  E  Q    Q       E  E  E  E  E  E  E  E     Q    Q    Q    Q     
e|--------------3----3----|--------------------------|-------3----3----3----|
B|--3--x--x--3--3----3----|--3--x--x--3--x--x--3-----|--3----3----3---------|
G|--2--x--x--2--0----0----|--2--x--x--2--x--x--2--2--|--2----0----0----0----|
D|--0--x--x--0------------|--0--x--x--0--x--x--0-----|--0--------------3----|
A|-----x--x---------------|-----x--x-----x--x--------|-------3--------------|
E|------------------------|--------------------------|----------------------|
 your dreams and the madness   I reach out my hand but you run and hide

                              [w/ Fill 2]                    
    E  E  E  E  E  E  E  E     E  E  E  E  E  E  E  E   
e|--------------3-----------|-----6--------------6-----|
B|--------4--------4--------|--------6-----8-----6--6--|
G|-----3-----3--------3-----|--7--------7-----7--------|
D|--------------------------|--------------------------|
A|--------------------------|--------------------------|
E|--4--------------------6--|--------------------------|
  I've watched you cry in the rain

    E  E  E  E  E  E  Q        E  E  Q    S S E  E  E   
e|--------------3-----------|-----------------3--3-----|
B|--x-----4--------4--------|-----------------3--3-----|
G|--x--3-----3--------3\----|-----3--3----x-x-5--5--x--|
D|--x-----------------------|-----3--3----x-x-5--5--x--|
A|--------------------------|-----1--1----x-x-3--3--x--|
E|--------------------------|--------------------------|
  I wanna bring back           the joy again

                                             
    E   E  E  E  E  E  E  E     E  E  E  E  E  E  E  E   
e|---------------------------|--------------------------|
B|---------------3-----------|--------------------------|
G|---------0--------0-----0--|--------0--------0-----0--|
D|------4-----4--------4-----|-----2--------0-----------|
A|--3------------------------|--3--------2--------3-----|
E|---------------------------|--------------------------|
  Open your heart           to mine

    E  E  E  E  E  E  E  E     E  E  E  E  E  E  E  E   
e|--------------------------|--------------3-----------|
B|-----------------------0--|-----------------3--------|
G|--------0-----------0-----|--------0-----------------|
D|-----4-----4-----4--------|-----2-----------------5--|
A|--5-----------7-----------|--3-----------------3-----|
E|--------------------------|-----------3--------------|
  I believe, I believe, you won't be sorry this time-baby

    E  E  E  E  E  E  E  E     E  E  E  E  E  E  E  E   
e|--------------------------|--------------------------|
B|--------------3-----------|--------------------------|
G|--------0--------0-----0--|--------0--------0--------|
D|-----4-----4--------4-----|-----2--------0--------0--|
A|--3-----------------------|--3--------2--------3-----|
E|--------------------------|--------------------------|
  Open your heart            tonight

    E  E  E  E  E  E  E  E     E  E  E  E  E  E  Q        Q    Q     Q    S S E   
e|--------------------------|--------------------------|-------------------------|
B|-----------------------0--|--------------3-----------|-------------------------|
G|--------0-----------0-----|--------0--------2--------|-------------------------|
D|-----4-----4-----4--------|-----2--------------4\----|------------------x-x----|
A|--5-----------7-----------|--3--------5--------------|--2----------2----x-x-2--|
E|--------------------------|--------------------------|--0----3b----0----x-x-0--|
  I believe, I believe you might be lucky this time     You might be lucky this time

                                       
    S S E  Q    Q      Q        E   E  E  E  E  E  E  E   
e|---------------------------|---------------------------|
B|---------------------------|--3---x--x--3--x--x--x--x--|
G|---------------------------|--2---x--x--2--x--x--x--x--|
D|----x---------2------------|--0---x--x--0--x--x--x--x--|
A|----x-2-------0----<>3~----|------x--x-----x--x--x--x--|
E|----x-0--3-----------------|---------------------------|
                             No guarantees when you 

    E  E  E  E  Q    Q       E  E  E  E  E  E  E  E     Q    Q    E  E  E  E   
e|--------------3----3----|--------------------------|------------------------|
B|--3--x--x--3--3----3----|--3--x--x--3--x--x--x--x--|--3---------------1-----|
G|--2--x--x--2--0----0----|--2--x--x--2--x--x--x--x--|--2----5----0--2-----2--|
D|--0--x--x--0------------|--0--x--x--0--x--x--x--x--|--0----5----0-----------|
A|-----x--x---------------|-----x--x-----x--x--x--x--|-------3----------------|
E|------------------------|--------------------------|------------------------|
 risk your emotion         So you surrender and it   all went astray

    E  E  E  E  E  E  E  E     E  E  E  E  Q    Q       E  E  E  E  E  E  E  E   
e|--------------------------|--------------3----3----|--------------------------|
B|--3--x--x--3--x--x--x--x--|--3--x--x--3--3----3----|--3--x--x--3--x--x--3-----|
G|--2--x--x--2--x--x--x--x--|--2--x--x--2--0----0----|--2--x--x--2--x--x--2--2--|
D|--0--x--x--0--x--x--x--x--|--0--x--x--0------------|--0--x--x--0--x--x--0-----|
A|-----x--x-----x--x--x--x--|-----x--x---------------|-----x--x-----x--x--------|
E|--------------------------|------------------------|--------------------------|
  Bitter and hopeless in your cold isolation        But you my love won't ever 

                                   
    Q    Q    Q    Q       E   E  E  E  E  E  E  E   
e|-------3----3----3----|---------------3-----------|
B|--3----3----3---------|---------4--------4--------|
G|--2----0----0----0----|------3-----3--------3-----|
D|--0--------------3----|---------------------------|
A|-------3--------------|---------------------------|
E|----------------------|--4---------------------6--|
 fade away              i wanna dry all your tears

   [Fill 2]
    E  E  E  E  E  E  E  E     E  E  E  E  E  E  Q      
e|-----6--------------6-----|--------------3-----------|
B|--------6-----8-----6--6--|--x-----4--------4--------|
G|--7--------7-----7--------|--x--3-----3--------3\----|
D|--------------------------|--x-----------------------|
A|--------------------------|--------------------------|
E|--------------------------|--------------------------|
                             You know there's nothin' to 

                               
    E  E  Q    S S E  E  E     E    E  E  E  E  E  E  E   
e|--------------------------|----------------------------|
B|--------------------------|----------------3-----------|
G|-----3--3----x-x-5--5--x--|----------0--------0-----0--|
D|-----3--3----x-x-5--5--x--|-------4-----4--------4-----|
A|-----1--1----x-x-3--3--x--|--3-------------------------|
E|--------------------------|----------------------------|
   fear, baby                 Open your heart to mine

    E  E  E  E  E  E  E  E     E  E  E  E  E  E  E  E   
e|--------------------------|--------------------------|
B|--------------------------|-----------------------0--|
G|--------0--------0-----0--|--------0-----------0-----|
D|-----2--------0-----------|-----4-----4-----4--------|
A|--3--------2--------3-----|--5-----------7-----------|
E|--------------------------|--------------------------|
                          I believe, I believe, you won't be 

    E  E  E  E  E  E  E  E     E  E  E  E  E  E  E  E   
e|--------------3-----------|--------------------------|
B|-----------------3--------|--------------3-----------|
G|--------0-----------------|--------0--------0-----0--|
D|-----2-----------------5--|-----4-----4--------4-----|
A|--3-----------------3-----|--3-----------------------|
E|-----------3--------------|--------------------------|
 sorry this time-baby        Open your heart tonight

    E  E  E  E  E  E  E  E     E  E  E  E  E  E  E  E   
e|--------------------------|--------------------------|
B|--------------------------|-----------------------0--|
G|--------0--------0--------|--------0-----------0-----|
D|-----2--------0--------0--|-----4-----4-----4--------|
A|--3--------2--------3-----|--5-----------7-----------|
E|--------------------------|--------------------------|
                           I believe, I believe you might be 

    E  E  E  E  E  E  Q        Q    Q     Q    S S E   
e|--------------------------|-------------------------|
B|--------------3-----------|-------------------------|
G|--------0--------2--------|------------------x-x----|
D|-----2--------------4\----|------------------x-x----|
A|--3--------5--------------|--2----------2----x-x-2--|
E|--------------------------|--0----3b----0----x-x-0--|
  lucky this time               You might be  lucky this time

    S S E  Q    Q      Q        Q    Q    Q    E  E     E  E  Q    Q      Q      
e|---------------------------|-----------------------|--------------------------|
B|---------------------------|-----------------------|--------------------------|
G|---------------------------|-----------------------|--------------------------|
D|----x---------2------------|-----------------------|-------------2------------|
A|----x-2-------0----<>3~----|--2---------2-------2--|-----2-------0------------|
E|----x-0--3-----------------|--0----3----0-------0--|-----0--3---------<>3~----|
                            lucky this time 

                                                
    E   E  E  E  E  E  E  E     E  E  E  E  E  E  E  E   
e|---------------1-----------|--------------3-----------|
B|------------------1--------|--------3--------3--------|
G|---------3-----------3--5--|-----5-----5--------5--7--|
D|--3---3-----3--------------|--------------------------|
A|--1------------------------|--3-----------------------|
E|---------------------------|--------------------------|
                    And when the shadows start to fall


                |-3-|                                          
    E  E  E  E  S S S E  E  E     E  E  E  E   E  E     Q      
e|-----------------------------|------------------------------|
B|--------6-----5-6-5----6-----|--------9-----10-----<>12~----|
G|-----7--------------------7--|-----9------------9-----------|
D|--7--------7--------7--------|--9--------9------------------|
A|-----------------------------|------------------------------|
E|-----------------------------|------------------------------|
                          Let my love break down the walls

  [Solo]                                                    
                        |--3--|                                
     H.    E    E       S  S  S  E   E     E    Q    E   S  S  
e|--15b-------------|-----------------------------------------|
B|--------15b--15b--|---L-15-13-----13--<>13b--13----L--------|
G|------------------|-----------14----------------------12-14-|
D|------------------|-----------------------------------------|
A|------------------|-----------------------------------------|
E|------------------|-----------------------------------------|


                             |--3--|                    
     S  S  E    E   S  S  S  T  T  T  S  S  S  S  S  S  
e|-----------------------------------------------------|
B|--13----15b--13--------------------------------------|
G|-----14----------14-12-14-12-14-12-------------------|
D|-----------------------------------14-13-12----------|
A|--------------------------------------------15-12----|
E|--------------------------------------------------15-|


     S  S  S  S  S   S  S  S    E    E   Q      
e|---------------------------------------------|
B|---------------------------------------------|
G|---------------------------------------------|
D|--------------12b-12-------<>12b-------------|
A|--12-15-12-15--------15-12--------15--12\----|
E|---------------------------------------------|


          SH    SH                           
                                  |-3-|      
    S S   S S   S S S S S S S S S T T T S S  
e|------------------------------------------|
B|------------------------------------------|
G|--------------------------5---7-5-7-5---5-|
D|------------------5---7-7---7---------7---|
A|------<>3---<>5-7---7---------------------|
E|--3-5-----5-------------------------------|


    Q     S   T  T  S  S  S  S   E  E   S  S  
e|-------------------------------------------|
B|--7b---19b-19-17---------------------------|
G|-----------------19-17-19-19b-17--L--19-17-|
D|-------------------------------------------|
A|-------------------------------------------|
E|-------------------------------------------|


     E    S  S  S  S  E    S  T  T  S  S  S   T  T  E    
e|------------------------------------------------------|
B|-------------------------------------------------20b--|
G|--19b--19-17-------19b---L-19-17-------19b-19-17------|
D|-------------19-17---------------19-17----------------|
A|------------------------------------------------------|
E|------------------------------------------------------|


                                                            
     E   S  T  T  S  S  S  S  S  S  S  S  Q        E   E  E  E  E  E  E  E   
e|----------------------------------------------|---------------3-----------|
B|---L---L-20-17--------------------------------|---------4--------4--------|
G|---------------20-19-17----19-20-17-19-14\----|------3-----3--------3-----|
D|------------------------19--------------------|---------------------------|
A|----------------------------------------------|---------------------------|
E|----------------------------------------------|--4---------------------6--|
                                               I've watched you cry in the rain

   [Fill 2]
    E  E  E  E  E  E  E  E     E  E  E  E  E  E  Q      
e|-----6--------------6-----|--------------3-----------|
B|--------6-----8-----6--6--|--x-----4--------4--------|
G|--7--------7-----7--------|--x--3-----3--------3\----|
D|--------------------------|--x-----------------------|
A|--------------------------|--------------------------|
E|--------------------------|--------------------------|
                           I wanna bring back the joy 

    E  E  Q    S S E  Q       
e|-----------------3--3\----|
B|-----------------3--3\----|
G|-----3--3----x-x-5--5\----|
D|-----3--3----x-x-5--5\----|
A|-----1--1----x-x-3--3\----|
E|--------------------------|
     again                

    E   E  E  E  E  E  E  E     E  E  E  E  E  E  E  E   
e|---------------------------|--------------------------|
B|---------------3-----------|--------------------------|
G|---------0--------0-----0--|--------0--------0-----0--|
D|------4-----4--------4-----|-----2--------0-----------|
A|--3------------------------|--3--------2--------3-----|
E|---------------------------|--------------------------|
  so open your heart           to mine

    E  E  E  E  E  E  E  E     E  E  E  E  E  E  E  E   
e|--------------------------|--------------3-----------|
B|-----------------------0--|-----------------3--------|
G|--------0-----------0-----|--------0-----------------|
D|-----4-----4-----4--------|-----2-----------------5--|
A|--5-----------7-----------|--3-----------------3-----|
E|--------------------------|-----------3--------------|
  I believe, I believe, you might be lucky this time-baby

    E  E  E  E  E  E  E  E     E  E  E  E  E  E  E  E   
e|--------------------------|--------------------------|
B|--------------3-----------|--------------------------|
G|--------0--------0-----0--|--------0--------0--------|
D|-----4-----4--------4-----|-----2--------0--------0--|
A|--3-----------------------|--3--------2--------3-----|
E|--------------------------|--------------------------|
  Open your heart            to mine


    E  E  E  E  E  E  E  E     E  E  E  E  E  E  E  E   
e|--------------------------|--------------3-----------|
B|-----------------------0--|-----------------3--------|
G|--------0-----------0-----|--------0-----------------|
D|-----4-----4-----4--------|-----2-----------------5--|
A|--5-----------7-----------|--3-----------------3-----|
E|--------------------------|-----------3--------------|
  I believe, I believe, you won't be sorry this time-baby

    E   E  E  E  E  E  E  E     E  E  E  E  E  E  E  E   
e|---------------------------|--------------------------|
B|---------------3-----------|--------------------------|
G|---------0--------0-----0--|--------0--------0-----0--|
D|------4-----4--------4-----|-----2--------0-----------|
A|--3------------------------|--3--------2--------3-----|
E|---------------------------|--------------------------|
   open your heart            to mine

    E  E  E  E  E  E  E  E     E  E  E  E  E  E  E  E   
e|--------------------------|--------------3-----------|
B|-----------------------0--|-----------------3--------|
G|--------0-----------0-----|--------0-----------------|
D|-----4-----4-----4--------|-----2-----------------5--|
A|--5-----------7-----------|--3-----------------3-----|
E|--------------------------|-----------3--------------|
  I believe, I believe, you might be lucky this time-baby

    E  E  E  E  E  E  E  E     E  E  E  E  E  E  E  E   
e|--------------------------|--------------------------|
B|--------------3-----------|--------------------------|
G|--------0--------0-----0--|--------0--------0--------|
D|-----4-----4--------4-----|-----2--------0--------0--|
A|--3-----------------------|--3--------2--------3-----|
E|--------------------------|--------------------------|
  Open your heart            to mine

    E  E  E  E  E  E  E  E     E  E  E  E  E  E  E  E   
e|--------------------------|--------------3-----------||
B|-----------------------0--|-----------------3--------||
G|--------0-----------0-----|--------0-----------------||
D|-----4-----4-----4--------|-----2-----------------5--||
A|--5-----------7-----------|--3-----------------3-----||
E|--------------------------|-----------3--------------||
  I believe, I believe, you won't be sorry this time-baby



  Fill 1
     Q      Q      Q      Q      
e|------------------------------|
B|--13b----13b----13b----13b----|
G|------------------------------|
D|------------------------------|
A|------------------------------|
E|------------------------------|

  Fill 2
    E  E  E  E  E  E  E  E     W                 
e|--------------3-----------|--3----------------|
B|-----4--4--3--4--4--3-----|--4----------------|
G|-----3--3--3--3--------3--|--3----------------|
D|--------------------------|-------------------|
A|--------------------------|--3----------------|
E|--------------------------|-------------------|



Duration Legend
---------------
W - whole
H - half
Q - quarter
E - 8th
S - 16th
T - 32nd
X - 64th
. - note dotted
|-n-|  - n-tuplets


Tablature Legend
----------------
L - tied note
x - dead note
g - grace note
(n) - ghost note
> - accentuded note
NH - natural harmonic
AH - artificial harmonic
TH - tapped harmonic
SH - semi harmonic
PH - pitch harmonic
h - hammer on
p - pull off
b - bend
br - bendRelease
pb - preBend
pbr - preBendRelease
brb - bendReleaseBend
\n/ - tremolo bar dip
\n - tremolo bar dive
-/n - tremolo bar Release up
/n\ - tremolo bar inverted dip
/n - tremolo bar return
-\n - tremolo bar Release down
S - shift slide
s - legato slide
/ -  slide into from below or out of upwards
\ -  slide into from above or out of downwards
~ - vibrato
W - wide vibrato
tr - trill
TP - tremolo picking
T - tapping
S - slap
P - pop
< - fade in
^ - brush up
v - brush down
Suggest correction
comments
print report bad tab
guest
You may want to rate the tab now too:
select rating
Wanna post a correction for this tab? Suggest correction