Oops, an error
Loading. Please wait.

Not One Night Tab

version 1
version 1

Whole song

Interactive

20,047 views 51 this week
no commentswrite comment
1 2 3 4 5
1 last vote to show rating
add to favorites
launch autoscroll
font size
0
reset
how to read this tab
guitar tuner
×
Best way to learn
"Not One Night"
Autoscroll
slow
fast
+/-
esc
set tempo
stop
- Chords:
----------

 (Standart Tunning: 1E, 2B, 3G, 4D, 5A, 6E)


       C#m    E     Em    D    F#m   G#m   A(1)  A(2)   Am   B(1)  B(2)  Bm
e| -----4-----0-----7-----2-----2-----4-----5-----0-----5-----2-----7-----2-----|
B| -----5-----0-----8-----3-----2-----4-----5-----2-----5-----4-----7-----3-----|
G| -----6-----1-----9-----2-----2-----4-----6-----2-----5-----4-----8-----4-----|
D| -----6-----2-----9-----0-----4-----6-----7-----2-----7-----4-----9-----4-----|
A| -----4-----2-----7-----X-----4-----6-----7-----0-----7-----2-----9-----2-----|
E| -----X-----0-----X-----X-----2-----4-----5-----X-----5-----X-----7-----X-----|


- Lyrics:
----------


[Verse 1]

E         C#m           G#m
I used to dream of only you
        A(1)       Am
now I don't do that.
E         C#m               G#m
I used to miss talkin' to you
        A(1)       Am
oh, now I don't do that.


[Pre-Chorus]

F#m               B(1)             F#m 
Since you've been gone I learned to stop
            Am 
tryin' to hold on because


[Chorus]

        E       A(2)       C#m        G#m
there's not one night, one single day
     A(2)       B(1)    C#m
that I wouldn't give to you.
   E       A(2)     C#m       G#m
So with all my might in every way,
   A(1)     Am      E
I'll try to forget you too.


  [Verse 2] (same chords as Verse 1):

I thought you could tell me anything
yeah, you used to do that.
You let me inside of everything
yeah, you used to do that.


  [Pre-Chorus] (same chords):

Never to change at least I thought
it feels so strange because


  [Chorus] (same chords):

there's not one night, one single day
that I wouldn't give to you.
So with all my might in every way,
I'll try to forget you too.


[Bridge]

B(2)                Em
Loneliness may come knockin' at my door
B(2)                             Em
where I'm comin' from that don't phase me anymore.
A(1)                          D                      Bm
Time has shed a little light on where I'm supposed to be
E                                       A(1)
there ain't no used in thinking you'll come running back to me.


  [Solo] (same chords as Verse 1):
                                                                                  
e|--------12----11--9-----------|------------------------|--------------------------|
B|--12----14----12--10--12--10--|--9----10--12-----------|--9-----11------12--------|
G|--13------------------13--11--|--9----11--13-----------|--------------------------|
D|------------------------------|--------------------/9--|----/9-----/11------------|
A|------------------------------|------------------------|--------------------------|
E|------------------------------|------------------------|--------------------------|

                                                                              
e|--------------------------|--0--------------------|---------------------------|
B|-----5--------------------|--5--------------------|------------------------9--|
G|--6-----4-----5--4-----4--|--4--------------------|--8--9---11--9-------------|
D|-----------7--------7-----|--6----------6--7--9---|--9--11--13--11----9-------|
A|--------------------------|--7----------7--9--11--|---------------------------|
E|--------------------------|--0--------------------|---------------------------|

                                                                           
e|-----------------------|---------------------------------|--0-------------------|
B|------------9--10--12--|--10------12^(1/2)----12--10--9--|--7-------------------|
G|------------9--11--13--|--9------------------------------|--4-------------------|
D|-----------------------|----------------------14--10--9--|--4-------------------|
A|-----------------------|---------------------------------|--7-------------------|
E|-----------------------|---------------------------------|----------------------|


  [Pre-Chorus] (same chords):

Since you've been gone I learned to stop
tryin' to hold on because


  [Chorus] (same chords): x2

there's not one night, one single day
that I wouldn't give to you.
So with all my might in every way,
I'll try to forget you too.
Suggest correction
Give kudos to tab author, rate the tab!
1 2 3 4 5
comments
print report bad tab
guest
You may want to rate the tab now too:
select rating
Wanna post a correction for this tab? Suggest correction