Oops, an error
Loading. Please wait.

Promise Her The Moon Tab

version 1
version 1

Whole song

Interactive

by Mr. Big
29,729 views 39 this week
1 commentread comment
1 2 3 4 5
x 7
add to favorites
launch autoscroll
font size
0
reset
how to read this tab
guitar tuner
×
Best way to learn
"Promise Her The Moon"
Autoscroll
slow
fast
+/-
esc
set tempo
stop
Author
CHORDS USED
Dadd4                   Emadd9                  Gmaj7/C                 Dadd11/C
x 5 4 0 x x             x 7 4 0 0 x             x 3 4 0 0 x             x 3 4 0 3 3
Fadd9                   Em7                     Gadd9                   Gmaj7/B
x x 3 2 x 3             x x 2 0 3 x             3 x 0 2 x x             x 2 4 0 3 x
Gmaj7sus4/C             Em9                     A13sus4
x 3 4 0 3 x             0 x 4 0 3 0             x 0 4 0 3 0

 [Intro]
   Dadd4  Emadd9      Gmaj7/C     G     Dadd4  Emadd9      Dadd11/C
e|------------------|-----------------|------------------|-------3-(3)----|
B|--------------0---|-----------------|--------------0---|-------3-(3)----|
G|------0-----0---0-|-----0-----0-----|------0-----0---0-|-----0----------|
D|----4-----4-------|---4-----4-------|----4-----4-------|---4------------|
A|-/5-----7---------|-3-----3-----2---|-/5-----7---------|-3--------------|
E|------------------|---------------3-|------------------|----------------|

   Dadd4  Emadd9      Gmaj7/C     G     Fadd9 Em7   Cadd9   Bb      C
e|------------------|-----------------|-----3-----------|----------------------||
B|--------------0---|-----------------|-----------3-----|----------------------||
G|------0-----0---0-|-----0-----0-----|---2-----0-------|-0--------------------||
D|----4-----4-------|---4-----4-------|-3-----2-------0-|-----0----------------||
A|-/5-----7---------|-3-----3-----2---|-------------3---|---1---1-1h3-(3)-(3)\-||
E|------------------|---------------3-|-----------------|----------------------||

 [Verse 1 & 2]
     Gadd9
e||------------------|------------|-----------------|--------|
B||------------------|------------|-----------------|--------|
G||---------2-(2)----|-(2)--------|--------2-(2)----|-(2)----|
D||-----0------------|------------|----0------------|--------|
A||------------------|------------|-----------------|--------|
E||--/3---3----------|------------|-/3---3----------|--------|

   Gsus4                      Cadd9 Cmaj7add9   C6add9
e|-^3---3---3--|-(3)--------|-8-----7---------|-------------------||
B|-^3---3---3--|-(3)--------|-8-8-----8-------|-10-----8-----7h8--||
G|-^5---5---5--|-(5)--------|-----0-----0---0-|----0-----0--------||
D|-^5---5---5--|-(5)--------|-------------0---|------0-----0------||
A|-^3---3---3--|-(3)--------|-----------------|-------------------||
E|-^3---3---3--|-(3)--------|-8---------------|--8----------------||

    Gadd9
e||------------------|------------|-----------------|--------|
B||------------------|------------|-----------------|--------|
G||---------2-(2)----|-(2)--------|--------2-(2)----|-(2)----|
D||-----0------------|------------|----0------------|--------|
A||------------------|------------|-----------------|--------|
E||--/3---3----------|------------|-/3---3----------|--------|

  Gsus4                      Cadd9 Cmaj7add9   C6add9
e|-^3---3---3--|-(3)--------|-8-----7---------|-------------------||
B|-^3---3---3--|-(3)--------|-8-8-----8-------|-10-----8-----7h8--||
G|-^5---5---5--|-(5)--------|-----0-----0---0-|----0-----0--------||
D|-^5---5---5--|-(5)--------|-------------0---|------0-----0------||
A|-^3---3---3--|-(3)--------|-----------------|-------------------||
E|-^3---3---3--|-(3)--------|-8---------------|--8----------------||

 [Pre-Chorus 1 & 2]
   Gmaj7/B          Gmaj7sus4/C        Em9               Gmaj7sus4/C
e|----------------|------------------|---------0-------|----------------|
B|-------3-(3)----|-------3-(3)------|-------3---3-----|-------3-(3)----|
G|-----0----------|-----0-------0----|-----0-------0---|-----0----------|
D|---4------------|---4------------4-|---4-----------4-|---4------------|
A|-2--------------|-3----------------|-----------------|-3--------------|
E|----------------|------------------|-0---------------|----------------|

   Gmaj7/B          Gmaj7sus4/C       A13sus4                   (Fmaj7)
e|----------------|------------------|-------------------------|-------0-(0)----||
B|-------3-(3)----|-------3-(3)------|-------3h5-(5)-3-1h3p1p0-|-----1----------||
G|-----0----------|-----0-------0----|-----0-------------------|---2------------||
D|---4------------|---4------------4-|---4---------------------|-3--------------||
A|-2--------------|-3----------------|-0-----------------------|----------------||
E|----------------|------------------|-------------------------|----------------||

 [Chorus 1 & 2]
   Dadd4  Emadd9      Dadd11/C    G     Dadd4  Emadd9      Cadd9
e|------------------|-----------------|------------------|-------3-(3)----|
B|--------------0---|-----------------|--------------0---|-------3-(3)----|
G|------0-----0---0-|-----0-----0-----|------0-----0---0-|-----0----------|
D|----4-----4-------|---4-----4-------|----4-----4-------|---4------------|
A|-/5-----7---------|-3-----3-----2---|-/5-----7---------|-3--------------|
E|------------------|---------------3-|------------------|----------------|

   Dadd4  Emadd9      Gmaj7/C     G     F                Cadd9
e|------------------|-----------------|-------1-(1)----|---------0-(0)----||
B|--------------0---|-----------------|-----1----------|-------1h3-(3)----||
G|------0-----0---0-|-----0-----0-----|---2------------|-----0------------||
D|----4-----4-------|---4-----4-------|-3--------------|--2---------------||
A|-/5-----7---------|-3-----3-----2---|----------------|-(3)--------------||
E|------------------|---------------3-|----------------|------------------||

 [Bridge]
   Gadd9                          Gsus4
e|-----------------|------------|-^3---3---3--|-(3)-----||
B|-----------------|------------|-^3---3---3--|-(3)-----||
G|--------2-(2)----|-(2)--------|-^5---5---5--|-(5)-----||
D|----0------------|------------|-^5---5---5--|-(5)-----||
A|-----------------|------------|-^3---3---3--|-(3)-----||
E|-/3---3----------|------------|-^3---3---3--|-(3)-----||

 [Interlude]
   F               G                F               G
e|-^1---0--1-----|--------------3-|-^1---0--1-----|--------------3-|
B|-^1--------1---|-0-----1--0-----|-^1--------1---|-0-----1--0-----|
G|-^2----------2-|---0--------0---|-^2----------2-|---0--------0---|
D|-^3------------|-----0----------|-^3------------|-----0----------|
A|---------------|----------------|---------------|----------------|
E|---------------|-3--------------|---------------|-3--------------|

   Am                  C                   Am                  D     DsusD
e|-------------0-----|-------------0-----|-------------0-----|-2-----3---2-----|
B|-------1-(1)---1---|-------1-(1)---1---|-------1-(1)---1---|---3-----3---3---|
G|-----2-----------2-|-----0-----------0-|-----2-----------2-|-----2---------2-|
D|---2---------------|---2---------------|---2---------------|-0---------------|
A|-0-----------------|-3-----------------|-0-----------------|-----------------|
E|-------------------|-------------------|-------------------|-----------------|

   G   Am7 F                             2/4
e|-3---0---1--|-(1)--------|-(1)--------|-(1)----||
B|-3---1---1--|-(1)--------|-(1)--------|-(1)----||
G|-4---0---2--|-(2)--------|-(2)--------|-(2)----||
D|-5---2---3--|-(3)--------|-(3)--------|-(3)----||
A|------------|------------|------------|--------||
E|------------|------------|------------|--------||

 [Chorus 3]
     Dadd4  Emadd9      Gmaj7/C     G     Dadd4  Emadd9      Dadd11/C
    4/4
e||-------------------|-----------------|------------------|-------3-(3)----|
B||---------------0---|-----------------|--------------0---|-------3-(3)----|
G||-------0-----0---0-|-----0-----0-----|------0-----0---0-|-----0----------|
D||-----4-----4-------|---4-----4-------|----4-----4-------|---4------------|
A||--/5-----7---------|-3-----3-----2---|-/5-----7---------|-3--------------|
E||-------------------|---------------3-|------------------|----------------|

   Dadd4  Emadd9      Gmaj7/C     G     F                Cadd9
e|------------------|-----------------|-------1-(1)----|-------------------||
B|--------------0---|-----------------|-----1----------|-------1h3-(3)-----||
G|------0-----0---0-|-----0-----0-----|---2------------|-----0-------------||
D|----4-----4-------|---4-----4-------|-3--------------|--2----------------||
A|-/5-----7---------|-3-----3-----2---|----------------|-(3)---------------||
E|------------------|---------------3-|----------------|-------------------||

 Dadd4  Emadd9      Gmaj7/C     G     Dadd4  Emadd9      Dadd11/C
    4/4
e||-------------------|-----------------|------------------|-------3-(3)----|
B||---------------0---|-----------------|--------------0---|-------3-(3)----|
G||-------0-----0---0-|-----0-----0-----|------0-----0---0-|-----0----------|
D||-----4-----4-------|---4-----4-------|----4-----4-------|---4------------|
A||--/5-----7---------|-3-----3-----2---|-/5-----7---------|-3--------------|
E||-------------------|---------------3-|------------------|----------------|

   Dadd4  Emadd9      Gmaj7/C     G     Fadd9 Em7   Cadd9
e|------------------|-----------------|----3------------|
B|--------------0---|-----------------|-----------3-----|
G|------0-----0---0-|-----0-----0-----|---2-----0-------|
D|----4-----4-------|---4-----4-------|-3-----2-------0-|
A|-/5-----7---------|-3-----3-----2---|-------------3---|
E|------------------|---------------3-|-----------------|

  Bb      C            Gadd9
e|----------------------|-----------------|--------*|
B|----------------------|-----------------|--------*|
G|-0--------------------|--------2-(2)----|-(2)----*|
D|-----0----------------|----0------------|--------*|
A|---1---1-1h3-(3)-(3)\-|-----------------|--------*|
E|----------------------|-/3---3----------|--------*|


************************************

| (n)  Ghost note
| /    Slide up
| h    Hammer-on
| p    Pull-off
| *    Natural harmonic

************************************

This is the sequence of the Song Progress

1. [Intro]
2. [Verse 1]
3. [Pre-chorus 1]
4. 
5. [Bridge]
6. [Verse 2]
7. [Pre-chorus 2]
8. [Chorus 2]
9. [Bridge]
10.[Interlude]
11.[Chorus 3]

Hey, yeah yeah

[Verse 1]
You don't know what you've got
Till the love is almost gone
This time, yeah she's given up
Still in a state of shock
I should've seen it coming on
It's too late for waking up

[Pre-Chorus 1]
Her mind's made up
I know the dream is over
But my heart just can't let go

[Chorus 1]
She's too good to be forgotten
Too good to be true
Before my world is torn apart
I'll promise her the moon
I'll promise her the moon

[Bridge]

[Verse 2]
I was too blind to notice her
Wrapped up in myself
Workin' hard overtime, night and day
I thought we were so secure
Can' imagine someone else
Could come between us
And take her away

[Pre-Chorus]
Her mind's made up
I know the dream is over
But my heart just can't let go

[Chorus 2]
She's too good to be forgotten
Too good to be true
Before my world is torn apart
I'll promise her the moon
I'll promise her the moon

[Bridge]

[Interlude]
And all the time she stood by me
I never said "I love you"
Yeah, I kept it deep down in my soul
And all the while I've been a fool
yeah, yeah yeah.

[Chorus 3]
She's too good to be forgotten
Too good to be true
Before my world is torn apart
I'll promise her the moon
I'll promise her the moon
Hey, yeah yeah
I'll promise her the moon
Hey, yeah
Suggest correction
comments
print report bad tab
1 comment total.
+1 reply
ssj3 90 Jun 21, 2007 12:11 AM

this tab is awesome.. 5 stars master tabber..

guest
You may want to rate the tab now too:
select rating
Wanna post a correction for this tab? Suggest correction