Oops, an error
Loading. Please wait.

Seven Impossible Days Tab

version 1
version 1

Whole song

Interactive

5,316 views 3 this week
no commentswrite comment
1 2 3 4 5
excellent!
x 4
add to favorites
launch autoscroll
font size
0
reset
how to read this tab
guitar tuner
Autoscroll
slow
fast
+/-
esc
set tempo
stop
Help us to improve Ultimate-Guitar.com Take our survey!
×
Author
Difficulty
didi3t 2,324
novice
            MR.BIG - Seven Impossible Days                               

                                      
                          D          G            
     E  E  E  E  E  E     E  S S S S E  S S S S  
E||--x--x--x--x--x--x--|--2--2-2-x-x-7--7-7-x-x-|
B||--x--x--x--x--x--x--|--3--3-3-x-x-8--8-8-x-x-|
G||--x--x--x--x--x--x--|--2--2-2-x-x-7--7-7-x-x-|
D||--x--x--x--x--x--x--|--0--0-0-x-x-0--0-0-x-x-|
A||--x--x--x--x--x--x--|------------------------|
E||--x--x--x--x--x--x--|------------------------|


  E  S S S S E  S S S S    E  S S S S E  S S S S  
--2--2-2-x-x-5--5-5-x-x-|--2--2-2-2-2-2--2-2-x-x-|
--3--3-3-x-x-5--5-5-x-x-|--3--3-3-3-3-3--3-3-x-x-|
--2--2-2-x-x-6--6-6-x-x-|--4--4-4-4-4-2--2-2-x-x-|
--0--0-0-x-x-7--7-7-x-x-|--4--4-4-4-4-4--4-4-x-x-|
-------------0--0-0-x-x-|--2--2-2-2-2-2--2-2-x-x-|
------------------------|------------------------|

                                         
  E  S S E  E  S S S S    E  S S E  E  S S S S  
--0--0-0-0--0--0-0-x-x-|--3--3-3-3--3--3-3-x-x-|
--0--0-0-0--0--0-0-x-x-|--0--0-0-0--0--0-0-x-x-|
--1--1-1-1--1--1-1-x-x-|--0--0-0-0--0--0-0-x-x-|
--2--2-2-2--2--2-2-x-x-|--0--0-0-0--0--0-0-x-x-|
--2--2-2-2--2--2-2-x-x-|--2--2-2-2--2--2-2-x-x-|
--0--0-0-0--0--0-0-x-x-|--3--3-3-3--3--3-3-x-x-|


                         D                                             
  E  S S S S E  E  E     E  S S S S E  S S S S    E  S S S S E  E  E   
--0--0-0-0-0-0--0--0--|--2--2-2-x-x-7--7-7-x-x-|--2--2-2-x-x-5--5--5--|
--2--2-2-2-2-2--3--0--|--3--3-3-x-x-8--8-8-x-x-|--3--3-3-x-x-5--5--5--|
--0--0-0-0-0-0--0-----|--2--2-2-x-x-7--7-7-x-x-|--2--2-2-x-x-6--6--6--|
--2--2-2-2-2-2--2-----|--0--0-0-x-x-0--0-0-x-x-|--0--0-0-x-x-7--7--7--|
--0--0-0-0-0-0--0-----|------------------------|-------------0--0--0--|
----------------------|------------------------|----------------------|

  D                                                                        
  E  S S S S E  S S S S    E  S S S S E  S S S S    E  S S S S E  S S S S  
--2--2-2-x-x-7--7-7-x-x-|--2--2-2-x-x-5--5-5-x-x-|--2--2-2-2-2-2--2-2-x-x-|
--3--3-3-x-x-8--8-8-x-x-|--3--3-3-x-x-5--5-5-x-x-|--3--3-3-3-3-3--3-3-x-x-|
--2--2-2-x-x-7--7-7-x-x-|--2--2-2-x-x-6--6-6-x-x-|--4--4-4-4-4-2--2-2-x-x-|
--0--0-0-x-x-0--0-0-x-x-|--0--0-0-x-x-7--7-7-x-x-|--4--4-4-4-4-4--4-4-x-x-|
------------------------|-------------0--0-0-x-x-|--2--2-2-2-2-2--2-2-x-x-|
------------------------|------------------------|------------------------|
  Sunday Morning          out of my mind           Feel like it's going to 

  E  S S E  E  S S S S    E  S S E  E  S S S S    E  S S S S E  E  E   
--0--0-0-0--0--0-0-x-x-|--3--3-3-3--3--3-3-x-x-|--0--0-0-0-0-0--0--0--|
--0--0-0-0--0--0-0-x-x-|--0--0-0-0--0--0-0-x-x-|--2--2-2-2-2-2--3--0--|
--1--1-1-1--1--1-1-x-x-|--0--0-0-0--0--0-0-x-x-|--0--0-0-0-0-0--0-----|
--2--2-2-2--2--2-2-x-x-|--0--0-0-0--0--0-0-x-x-|--2--2-2-2-2-2--2-----|
--2--2-2-2--2--2-2-x-x-|--2--2-2-2--2--2-2-x-x-|--0--0-0-0-0-0--0-----|
--0--0-0-0--0--0-0-x-x-|--3--3-3-3--3--3-3-x-x-|----------------------|
  waste                   25 years,                Seven Impossible 

  D                                               D                      
  E  S S S S E  S S S S    E  S S S S E  E  E     E  S S S S E  S S S S  
--2--2-2-x-x-7--7-7-x-x-|--2--2-2-x-x-5--5--5--|--2--2-2-x-x-7--7-7-x-x-|
--3--3-3-x-x-8--8-8-x-x-|--3--3-3-x-x-5--5--5--|--3--3-3-x-x-8--8-8-x-x-|
--2--2-2-x-x-7--7-7-x-x-|--2--2-2-x-x-6--6--6--|--2--2-2-x-x-7--7-7-x-x-|
--0--0-0-x-x-0--0-0-x-x-|--0--0-0-x-x-7--7--7--|--0--0-0-x-x-0--0-0-x-x-|
------------------------|-------------0--0--0--|------------------------|
------------------------|----------------------|------------------------|
  days                                            Monday morning                          

  E  S S S S E  S S S S    E  S S S S E  S S S S    E  S S E  E  S S S S  
--2--2-2-x-x-5--5-5-x-x-|--2--2-2-2-2-2--2-2-x-x-|--0--0-0-0--0--0-0-x-x-|
--3--3-3-x-x-5--5-5-x-x-|--3--3-3-3-3-3--3-3-x-x-|--0--0-0-0--0--0-0-x-x-|
--2--2-2-x-x-6--6-6-x-x-|--4--4-4-4-4-2--2-2-x-x-|--1--1-1-1--1--1-1-x-x-|
--0--0-0-x-x-7--7-7-x-x-|--4--4-4-4-4-4--4-4-x-x-|--2--2-2-2--2--2-2-x-x-|
-------------0--0-0-x-x-|--2--2-2-2-2-2--2-2-x-x-|--2--2-2-2--2--2-2-x-x-|
------------------------|------------------------|--0--0-0-0--0--0-0-x-x-|
  I'll never find         someone with strength to  betray
                                               D                      
  E  S S E  E  S S S S    E  S S S S E  E  E     E  S S S S E  S S S S  
--3--3-3-3--3--3-3-x-x-|--0--0-0-0-0-0--0--0--|--2--2-2-x-x-7--7-7-x-x-|
--0--0-0-0--0--0-0-x-x-|--2--2-2-2-2-2--3--0--|--3--3-3-x-x-8--8-8-x-x-|
--0--0-0-0--0--0-0-x-x-|--0--0-0-0-0-0--0-----|--2--2-2-x-x-7--7-7-x-x-|
--0--0-0-0--0--0-0-x-x-|--2--2-2-2-2-2--2-----|--0--0-0-x-x-0--0-0-x-x-|
--2--2-2-2--2--2-2-x-x-|--0--0-0-0-0-0--0-----|------------------------|
--3--3-3-3--3--3-3-x-x-|----------------------|------------------------|
  25 years,               seven impossible     days
                       
  E  S S S S E  E  E     E  S S E  E  S S E     E  S S E  E  S S E   
--2--2-2-x-x-2--2--2--|--3--3-3-3--3--3-3-3--|--2--2-2-2--2--2-0-0--|
--3--3-3-x-x-3--3--3--|--0--0-0-0--0--0-0-0--|--3--3-3-3--3--3-3-3--|
--2--2-2-x-x-2--2--2--|--0--0-0-0--0--0-0-0--|--2--2-2-2--2--2-2-2--|
--0--0-0-x-x-0--2--4--|--0--0-0-0--0--0-0-0--|--0--0-0-0--0--0-0-0--|
----------------------|--2--2-2-2--2--2-2-2--|----------------------|
----------------------|--3--3-3-3--3--3-3-3--|----------------------|
              People are walking,             leaving behind

  E  S S E  E  E  E     E  S S S S E  E  E     E  S S E  E  S S E   
--0--0-0-0--0--0--0--|--2--2-2-x-x-2--2--2--|--3--3-3-3--3--3-3-3--|
--2--2-2-2--2--3--2--|--3--3-3-x-x-3--3--3--|--0--0-0-0--0--0-0-0--|
--0--0-0-0--0--0--0--|--2--2-2-x-x-2--2--2--|--0--0-0-0--0--0-0-0--|
--2--2-2-2--2--2--2--|--0--0-0-x-x-0--2--4--|--0--0-0-0--0--0-0-0--|
--0--0-0-0--0--0--0--|----------------------|--2--2-2-2--2--2-2-2--|
---------------------|----------------------|--3--3-3-3--3--3-3-3--|
  someone who wants them to stay    Everyone's  talking 

  E  S S E  E  S S E     E  S S E  E  S S S S    E  S S E  E  S S S S  
--2--2-2-2--2--2-0-0--|--0--0-0-0--0--0-0-0-0-|--0--0-0-0--0--0-0-0-0-|
--3--3-3-3--3--3-3-3--|--0--0-0-0--0--0-0-0-0-|--0--0-0-0--0--0-0-0-0-|
--2--2-2-2--2--2-2-2--|--0--0-0-0--0--0-0-0-0-|--0--0-0-0--0--0-0-0-0-|
--0--0-0-0--0--0-0-0--|--2--2-2-2--2--2-2-2-2-|--2--2-2-2--2--2-2-2-2-|
----------------------|--2--2-2-2--2--2-2-2-2-|--2--2-2-2--2--2-2-2-2-|
----------------------|--0--0-0-0--0--0-0-0-0-|--0--0-0-0--0--0-0-0-0-|
 out of their mind      See that thay gone, afraid that they coming to 

                                                 D                      
  E  S E  S E  S E  S    E  S S S S E  S E  S    E  S S S S E  S S S S  
--0--0-0--0-0--0-0--0-|--0--0-0-0-0-5--5-5--5-|--2--2-2-x-x-7--7-7-x-x-|
--2--2-2--2-3--3-3--3-|--5--5-5-5-5-5--5-5--5-|--3--3-3-x-x-8--8-8-x-x-|
--0--0-0--0-0--0-0--0-|--0--0-0-0-0-6--6-6--6-|--2--2-2-x-x-7--7-7-x-x-|
--2--2-2--2-2--2-2--2-|--5--5-5-5-5-5--5-5--5-|--0--0-0-x-x-0--0-0-x-x-|
--0--0-0--0-0--0-0--0-|--0--0-0-0-0-----------|------------------------|
----------------------|-----------------------|------------------------|
 stay                                            Friday morning 

  E  S S S S E  S S S S    E  S S S S E  S S S S    E  S S E  E  S S S S  
--2--2-2-x-x-5--5-5-x-x-|--2--2-2-2-2-2--2-2-x-x-|--0--0-0-0--0--0-0-x-x-|
--3--3-3-x-x-5--5-5-x-x-|--3--3-3-3-3-3--3-3-x-x-|--0--0-0-0--0--0-0-x-x-|
--2--2-2-x-x-6--6-6-x-x-|--4--4-4-4-4-2--2-2-x-x-|--1--1-1-1--1--1-1-x-x-|
--0--0-0-x-x-7--7-7-x-x-|--4--4-4-4-4-4--4-4-x-x-|--2--2-2-2--2--2-2-x-x-|
-------------0--0-0-x-x-|--2--2-2-2-2-2--2-2-x-x-|--2--2-2-2--2--2-2-x-x-|
------------------------|------------------------|--0--0-0-0--0--0-0-x-x-|
 got thru the grind       Find me a woman who       lays
                                                 D                      
  E  S S E  E  S S S S    E  S S S S E  E  E     E  S S S S E  S S S S  
--3--3-3-3--3--3-3-x-x-|--0--0-0-0-0-0--0--0--|--2--2-2-x-x-7--7-7-x-x-|
--0--0-0-0--0--0-0-x-x-|--2--2-2-2-2-2--3--0--|--3--3-3-x-x-8--8-8-x-x-|
--0--0-0-0--0--0-0-x-x-|--0--0-0-0-0-0--0-----|--2--2-2-x-x-7--7-7-x-x-|
--0--0-0-0--0--0-0-x-x-|--2--2-2-2-2-2--2-----|--0--0-0-x-x-0--0-0-x-x-|
--2--2-2-2--2--2-2-x-x-|--0--0-0-0-0-0--0-----|------------------------|
--3--3-3-3--3--3-3-x-x-|----------------------|------------------------|
 my head to bed          in seven impossible     ways

                       [Bass Solo]
  E  S S S S E  E  E     E  S S S S E  S S S S    E  S S S S E  E  S S  
--2--2-2-x-x-5--5--5--|--2--2-2-x-x-7--7-7-x-x-|--2--2-2-x-x-5--5--x-x-|
--3--3-3-x-x-5--5--5--|--3--3-3-x-x-8--8-8-x-x-|--3--3-3-x-x-5--5--x-x-|
--2--2-2-x-x-6--6--6--|--2--2-2-x-x-7--7-7-x-x-|--2--2-2-x-x-6--6--x-x-|
--0--0-0-x-x-7--7--7--|--0--0-0-x-x-0--0-0-x-x-|--0--0-0-x-x-7--7--x-x-|
-------------0--0--0--|------------------------|-------------0--0--x-x-|
----------------------|------------------------|-----------------------|


  E  S S S S E  S S S S    E  S S E  E  S S S S    E  S S E  E  S S S S  
--2--2-2-2-2-2--2-2-x-x-|--0--0-0-0--0--0-0-x-x-|--3--3-3-3--3--3-3-x-x-|
--3--3-3-3-3-3--3-3-x-x-|--0--0-0-0--0--0-0-x-x-|--0--0-0-0--0--0-0-x-x-|
--4--4-4-4-4-2--2-2-x-x-|--1--1-1-1--1--1-1-x-x-|--0--0-0-0--0--0-0-x-x-|
--4--4-4-4-4-4--4-4-x-x-|--2--2-2-2--2--2-2-x-x-|--0--0-0-0--0--0-0-x-x-|
--2--2-2-2-2-2--2-2-x-x-|--2--2-2-2--2--2-2-x-x-|--2--2-2-2--2--2-2-x-x-|
------------------------|--0--0-0-0--0--0-0-x-x-|--3--3-3-3--3--3-3-x-x-|


  E  S S S S E  E  E     E  S S S S E  S S S S    E  S S S S E  E  E   
--0--0-0-0-0-0--0--0--|--2--2-2-x-x-7--7-7-x-x-|--2--2-2-x-x-2--2--2--|
--2--2-2-2-2-2--3--0--|--3--3-3-x-x-8--8-8-x-x-|--3--3-3-x-x-3--3--3--|
--0--0-0-0-0-0--0-----|--2--2-2-x-x-7--7-7-x-x-|--2--2-2-x-x-2--2--2--|
--2--2-2-2-2-2--2-----|--0--0-0-x-x-0--0-0-x-x-|--0--0-0-x-x-0--2--4--|
--0--0-0-0-0-0--0-----|------------------------|----------------------|
----------------------|------------------------|----------------------|


  E  S S E  E  S S E     E  S S E  E  S S E     E  S S E  E  E  E   
--3--3-3-3--3--3-3-3--|--2--2-2-2--2--2-0-0--|--0--0-0-0--0--0--0--|
--0--0-0-0--0--0-0-0--|--3--3-3-3--3--3-3-3--|--2--2-2-2--2--3--2--|
--0--0-0-0--0--0-0-0--|--2--2-2-2--2--2-2-2--|--0--0-0-0--0--0--0--|
--0--0-0-0--0--0-0-0--|--0--0-0-0--0--0-0-0--|--2--2-2-2--2--2--2--|
--2--2-2-2--2--2-2-2--|----------------------|--0--0-0-0--0--0--0--|
--3--3-3-3--3--3-3-3--|----------------------|---------------------|
 People are walking,    leaving behind        someone who wants them  

  E  S S S S E  E  E     E  S S E  E  S S E     E  S S E  E  S S E   
--2--2-2-x-x-2--2--2--|--3--3-3-3--3--3-3-3--|--2--2-2-2--2--2-0-0--|
--3--3-3-x-x-3--3--3--|--0--0-0-0--0--0-0-0--|--3--3-3-3--3--3-3-3--|
--2--2-2-x-x-2--2--2--|--0--0-0-0--0--0-0-0--|--2--2-2-2--2--2-2-2--|
--0--0-0-x-x-0--2--4--|--0--0-0-0--0--0-0-0--|--0--0-0-0--0--0-0-0--|
----------------------|--2--2-2-2--2--2-2-2--|----------------------|
----------------------|--3--3-3-3--3--3-3-3--|----------------------|
 to stay       Everyone's talking               out of their mind

  E  S S E  E  S S S S    E  S S E  E  S S S S    E  S E  S E  S E  S  
--0--0-0-0--0--0-0-0-0-|--0--0-0-0--0--0-0-0-0-|--0--0-0--0-0--0-0--0-|
--0--0-0-0--0--0-0-0-0-|--0--0-0-0--0--0-0-0-0-|--2--2-2--2-3--3-3--3-|
--0--0-0-0--0--0-0-0-0-|--0--0-0-0--0--0-0-0-0-|--0--0-0--0-0--0-0--0-|
--2--2-2-2--2--2-2-2-2-|--2--2-2-2--2--2-2-2-2-|--2--2-2--2-2--2-2--2-|
--2--2-2-2--2--2-2-2-2-|--2--2-2-2--2--2-2-2-2-|--0--0-0--0-0--0-0--0-|
--0--0-0-0--0--0-0-0-0-|--0--0-0-0--0--0-0-0-0-|----------------------|
 See that thay gone,    afraid that they coming   to stay
  
  E  S E  S E  S E  S  
--0--0-0--0-5--5-5--5-|
--5--5-5--5-5--5-5--5-|
--0--0-0--0-6--6-6--6-|
--5--5-5--5-5--5-5--5-|
--0--0-0--0-----------|
----------------------|

   A            G            F#m          Em
   Q  E E E E   Q  E E E E   Q  E E E E   Q  E E E E
---5--5-5-5-5-|-3--3-3-3-3-|-2--2-2-2-2-|-0--0-0-0-0-|
---5--5-5-5-5-|-3--3-3-3-3-|-2--2-2-2-2-|-0--0-0-0-0-|
---6--6-6-6-6-|-4--4-4-4-4-|-2--2-2-2-2-|-0--0-0-0-0-|
--------------|------------|------------|------------|
--------------|------------|------------|------------|
--------------|------------|------------|------------|

                                                                       
  E  S S E  E  S S S S    E  S S S S E  E  E     E  S S S S E  S S S S  
--2--2-2-x--7--7-7-x-x-|--2--2-2-x-x-5--5--5--|--2--2-2-2-2-2--2-2-2-2-|
--3--3-3-x--8--8-8-x-x-|--3--3-3-x-x-5--5--5--|--3--3-3-3-3-3--3-3-3-3-|
--2--2-2-x--7--7-7-x-x-|--2--2-2-x-x-6--6--6--|--4--4-4-4-4-2--2-2-2-2-|
--0--0-0-x--0--0-0-x-x-|--0--0-0-x-x-7--7--7--|--4--4-4-4-4-4--4-4-4-4-|
-----------------------|-------------0--0--0--|--2--2-2-2-2-2--2-2-2-2-|
-----------------------|----------------------|------------------------|
 Sunday Morning          out of my mind         Feel like it's going to 



  E  S S S S E  S S S S    E  S S E  E  S S S S    E  S S S S E  E  E   
--0--0-0-0-0-0--0-0-x-x-|--3--3-3-3--3--3-3-x-x-|--0--0-0-0-0-0--0--0--|
--0--0-0-0-0-0--0-0-x-x-|--0--0-0-0--0--0-0-x-x-|--2--2-2-2-2-2--3--0--|
--1--1-1-1-1-1--1-1-x-x-|--0--0-0-0--0--0-0-x-x-|--0--0-0-0-0-0--0-----|
--2--2-2-2-2-2--2-2-x-x-|--0--0-0-0--0--0-0-x-x-|--2--2-2-2-2-2--2-----|
--2--2-2-2-2-2--2-2-x-x-|--2--2-2-2--2--2-2-x-x-|--0--0-0-0-0-0--0-----|
--0--0-0-0-0-0--0-0-x-x-|--3--3-3-3--3--3-3-x-x-|----------------------|
 waste                    25 years,               Seven Impossible 
                          
  D                                                                    
  E  S S S S E  S S S S    E  S S S S E  E  E   
--2--2-2-x-x-7--7-7-x-x-|--2--2-2-x-x-5--5--5--|
--3--3-3-x-x-8--8-8-x-x-|--3--3-3-x-x-5--5--5--|
--2--2-2-x-x-7--7-7-x-x-|--2--2-2-x-x-6--6--6--|
--0--0-0-x-x-0--0-0-x-x-|--0--0-0-x-x-7--7--7--|
------------------------|-------------0--0--0--|
------------------------|----------------------|
 Days                    Seven Impossible Days

  D                                               D                      
  E  S S S S E  S S S S    E  S S S S E  E  E     E  S S S S E  S S S S  
--2--2-2-x-x-7--7-7-x-x-|--2--2-2-x-x-5--5--5--|--2--2-2-x-x-7--7-7-x-x-|
--3--3-3-x-x-8--8-8-x-x-|--3--3-3-x-x-5--5--5--|--3--3-3-x-x-8--8-8-x-x-|
--2--2-2-x-x-7--7-7-x-x-|--2--2-2-x-x-6--6--6--|--2--2-2-x-x-7--7-7-x-x-|
--0--0-0-x-x-0--0-0-x-x-|--0--0-0-x-x-7--7--7--|--0--0-0-x-x-0--0-0-x-x-|
------------------------|-------------0--0--0--|------------------------|
------------------------|----------------------|------------------------|
                         Seven Impossible Days
                                
  E  S S S S E  E  E     H.             
--2--2-2-x-x-5--5--5--|--2------------||
--3--3-3-x-x-5--5--5--|--3------------||
--2--2-2-x-x-6--6--6--|--2------------||
--0--0-0-x-x-7--7--7--|--0------------||
-------------0--0--0--|---------------||
----------------------|---------------||
 Seven Impossible    Days




Duration Legend
---------------
W - whole
H - half
Q - quarter
E - 8th
S - 16th
T - 32nd
X - 64th
. - note dotted
|-n-|  - n-tuplets


Tablature Legend
----------------
L - tied note
x - dead note
g - grace note
(n) - ghost note
> - accentuded note
NH - natural harmonic
AH - artificial harmonic
TH - tapped harmonic
SH - semi harmonic
PH - pitch harmonic
h - hammer on
p - pull off
b - bend
br - bendRelease
pb - preBend
pbr - preBendRelease
brb - bendReleaseBend
\n/ - tremolo bar dip
\n - tremolo bar dive
-/n - tremolo bar Release up
/n\ - tremolo bar inverted dip
/n - tremolo bar return
-\n - tremolo bar Release down
S - shift slide
s - legato slide
/ -  slide into from below or out of upwards
\ -  slide into from above or out of downwards
~ - vibrato
W - wide vibrato
tr - trill
TP - tremolo picking
T - tapping
S - slap
P - pop
< - fade in
^ - brush up
v - brush down
Suggest correction new What's this?
You can suggest a correction to this tab. Community and Mods will review your correction and vote to approve or reject it.
comments
print report bad tab
guest
You may want to rate the tab now too:
select rating
Please do not post tabs as comments. Select "correction" instead!