Oops, an error
Loading. Please wait.

Shine Tab

version 1
version 1

Whole song

Interactive

31,644 views 39 this week
no commentswrite comment
1 2 3 4 5
1 last vote to show rating
add to favorites
launch autoscroll
font size
0
reset
how to read this tab
guitar tuner
Autoscroll
slow
fast
+/-
esc
set tempo
stop
Help us to improve Ultimate-Guitar.com Take our survey!
×
Author
[Intro riff]
    Eb         Bb          G#         *
(Rythym Guitar)                       *
e|-----------------------------------------------|
B|--4----------3---4---6---4----------3---4---6--|
G|--3----------3-----------3----------3----------|
D|------------------------------------*----------|
A|------------------------------------*----------|
E|------------------------------------*----------|
                                      *
                              *********
(Guitar 3)
(Play only when the BassGuitar is in chord G#)
e|----------------------------|
B|----------------------------|
G|-------0----------0------0--|
D|---5^==-====5^====-===5^----|
A|----------------------------|
E|----------------------------|

(Lead Guitar)
e|----------------------------------------------------------------|
B|-11--11--11--11--11--11--11--11--11--11--11--11--11--11--11--11-|
G|-8---8---8---8---8---8---8---8---7---7---7---8---8---8---10--10-|
D|----------------------------------------------------------------|
A|----------------------------------------------------------------|
E|----------------------------------------------------------------|

e|----------------------------------------------------------------|
B|-11--11--11--11--11--11--11--11--11--11--11--11--11--11--11--11-|
G|-8---8---8---8---8---8---8---8---8---8---8---8---8---8---7---7--|
D|---------------------------------------------10--10--10---------|
A|----------------------------------------------------------------|
E|----------------------------------------------------------------|

e|-------------------|
B|-11----------------|
G|-8-----------------|
D|-------------------|
A|-------------------|
E|-------------------|

[Verse]
Eb               Bb
  I never really feel quite right
  G#
I don't know why, all I know is there's something wrong
Eb             Bb                    G#
  Every time I look at you, you seem so alive
Eb                   Bb             Cm
  Tell me how do you do it, walk me through it
               G#
I'm following every footstep
Fm
Baby on your own you take a cautious step
             G#
Do you wanna give it up?
          Bb
But all I want is for you to

[Chorus]
  Eb          Bb
SHIIIIIIINE
G#
Shine     down on me
Eb              Bb                  C#
Shine   on this life that's burning out

[Instrumental]
    Eb         Bb          G#         *
(Rythym Guitar)                       *
e|-----------------------------------------------|
B|--4----------3---4---6---4----------3---4---6--|
G|--3----------3-----------3----------3----------|
D|------------------------------------*----------|
A|------------------------------------*----------|
E|------------------------------------*----------|
                                      *
                              *********
(Guitar 3)
(Play only when the BassGuitar is in chord G#)
e|----------------------------|
B|----------------------------|
G|-------0----------0------0--|
D|---5^==-====5^====-===5^----|
A|----------------------------|
E|----------------------------|

(Lead Guitar)
e|----------------------------------------------------------------|
B|-11--11--11--11--11--11--11--11--11--11--11--11--11--11--11--11-|
G|-8---8---8---8---8---8---8---8---7---7---7---8---8---8---10--10-|
D|----------------------------------------------------------------|
A|----------------------------------------------------------------|
E|----------------------------------------------------------------|

e|----------------------------------------------------------------|
B|-11--11--11--11--11--11--11--11--11--11--11--11--11--11--11--11-|
G|-8---8---8---8---8---8---8---8---8---8---8---8---8---8---7---7--|
D|---------------------------------------------10--10--10---------|
A|----------------------------------------------------------------|
E|----------------------------------------------------------------|

e|-------------------|
B|-11----------------|
G|-8-----------------|
D|-------------------|
A|-------------------|
E|-------------------|

[Verse]
Eb               Bb                         G#
  I say a lot of things sometimes that don't come out right
G#
  And I act like I don't know why
Eb               Bb                G#
  I guess a reaction  is all I was looking for
Eb                  Bb               Cm
  You looked through me, you really knew me
                G#
like no one has EVER looked before
Fm
Baby on your own you take a cautious step
             G#
Do you wanna give it up?
          Bb
But all I want is for you to

[Chorus]
  Eb        Bb
SHIIIIIINE
G#
Shine    down on me
Eb               Bb                G#
Shine  on this life that's burning out
G#
  I know, I know, girl you got something
Eb          Bb
SHINE.....  (shine it on to me)
G#
Shine  down on me (I wanna feel it)
Eb              Bb                 C#
Shine  on this life that's burning out

[Solo]
e|----------------------------------------------------------|
B|----------------------------------------------------------|
G|----------------------------------------------------------|
D|--6--8----------------------------------------------------|
A|--6--8-----/10----8--8---6--6---3--3---1--1--3---6b~------|
E|--4--6----------------------------------------------------|

                                                    Whammy Bar Down
e|----------------------------------------------------------|
B|----------------------------------------------------------|
G|----------------------------------------------------------|
D|--6--8----------------------------------------------------|
A|--6--8--6---6/8-----8/10--8--6------6---------------------|
E|--4--6---------------------------------8--6b==r==4======--|

e|-----------------------------------------------------------------|
B|-----------------------------------------------------------------|
G|-----------------------------------------------------------------|
D|--6--8---------------------------------------------------6--8----|
A|--6--8---8/15---13--13---8/10\8--6--6---1--1--3---6b~----6--8--6-|
E|--4--6---------------------------------------------------4--6----|

e|------------------------------------------------------------|
B|-9---9--9----9---9--9----9---9--9----9---9--9-\-7---7/-9--9-|
G|-6---6--6----5---5--5---------------------------6---6--6--6-|
D|-------------------------8---8--8----6---6--6---------------|
A|------------------------------------------------------------|
E|------------------------------------------------------------|

e|--------------------------9--9--------9--9----9--9----------|
B|-7/9-9--9--9--9--9---7/9--9--9---7/9--9--9----9--9--9~~~----|
G|-6---6--6--6--6--6---6-----------6--------------------------|
D|------------------------------------------------------------|
A|------------------------------------------------------------|
E|------------------------------------------------------------|

Fm
Baby on your own you take a cautious step
             G#
Do you wanna give it up?
          Bb
But all I want is for you to

[Chorus]
  Eb      Bb
SHINE.........
G#
Shine down on me (just show me something)
Eb            Bb                  G#
Shine on this life that's burning out
(you give me something that I never know)
Eb                     Bb
Shine (it gonna kill me if you give something away)
G#
Shine yeaaah (I wanna know what's going in on your mind)
Eb            Bb                  G#
Shine on this life that's burning out


************************************

| *  Natural harmonic
| /  Slide up
| \  Slide down
| ~  Vibrato

************************************
Suggest correction
Give kudos to tab author, rate the tab!
1 2 3 4 5
comments
print report bad tab
guest
You may want to rate the tab now too:
select rating
Wanna post a correction for this tab? Suggest correction