Oops, an error
Loading. Please wait.

Superfantastic Chords

version 2
version 2

Whole song

Interactive

21,540 views 6 this week
no commentswrite comment
1 2 3 4 5
worth learning
x 5
add to favorites
launch autoscroll
font size
0
reset
transpose
0
reset
simplify chords
display chords
guitar tuner
Tab Pro tools
  • play this tab
  • loop segment
  • change instrument
  • show fretboard
  • metronome
×
Best way to learn
"Superfantastic"
Autoscroll
slow
fast
+/-
esc
set tempo
stop
Contributor
Difficulty
novice
Standard tuning:Ebgdae

intro:(x2)
    G          C          D
|---3-3-3-3----0-0-0-0----2-2-2-2-2-2-2-2----------|
|---0-0-0-0----1-1-1-1----3-3-3-3-3-3-3-3----------|
|---0-0-0-0----0-0-0-0----2-2-2-2-2-2-2-2----------|
|---0-0-0-0---2--2-2-2----0-0-0-0-0-0-0-0----------|
|--2---------3------------0-0-0-0-0-0-0-0----------|
|-3-----------------------0-0-0-0-0-0-0-0----------|

G
He runs around
C                           D
Like it's a monkey do situation
G                      
Reach down into his soul
C                    D
And get nothing at all
Dsus4/D    Em7
Ride the wave
C                        D
In a bubble made of plastic
C                G
In a water color world that's...

D          A
Superfantastic
G             A  
Everything is beautiful
D          A
Nothing's too tragic
G
When it comes 
   A 
To happy people
D       A
Bedtime stories,
G       A
Morning glories
D    G
Blue sky and
Bm 
The perfect life
    A       D
For you and me

Bridge & Outro:
|--2-2-3-2--2-2-3-2--------|
|--3-3-3-3--3-3-3-3--------|
|--2-2-2-2--2-2-2-2--------|
|--0-0-0-0--0-0-0-0--------|
|--0-0-0-0--0-0-0-0--------|
|--0-0-0-0--0-0-0-0--------|

Look into the eyes
Of the man and see
The main attraction
Living off the fat of the land
And standing tall
Mr. Feel Good craves satisfaction
Like an all day sucker....

Superfantastic
Everything is beautiful
Nothing's too tragic
When it comes to happy people
Bedtime stories, morning glories
Blue sky and the perfect life 
For you and me

*Bridge*
A            G
White bread, black tie,
C        D
Big boys don't cry
A            G
Ahy..........Ahy..........
C        D
Ahy..........Ahy..........

Solo: (look likes this, just continue by yourself.)
|--------------------------------------------|
|-7--8--10--10-------7 7/5-------------------|
|---------------7--7--------7/9-7-4/7--------|
|--------------------------------------------|
|--------------------------------------------|
|--------------------------------------------|
comments
print report bad tab
I want to post or [tab]
guest
You may want to rate the tab now too:
select rating
Please do not post tabs as comments. Select "correction" instead!