Oops, an error
Loading. Please wait.

Take Cover Tab

version 1
version 1

Whole song

Interactive

46,407 views 57 this week
2 commentsread comments
1 2 3 4 5
x 7
add to favorites
launch autoscroll
font size
0
reset
how to read this tab
guitar tuner
×
Best way to learn
"Take Cover"
Autoscroll
slow
fast
+/-
esc
set tempo
stop
Author
Difficulty
Tuning: Standard

[Intro]
e|----0---0--0---0--0-0--0-0----0---0--0---0--0--------------------------------|
B|---12--14--7--12--5-4--2-0---12--14--9--12--7--------------------------------|
G|-----------------------------------------------------------------------------|
D|-----------------------------------------------------------------------------|
A|-----------------------------------------------------------------------------|
E|-----------------------------------------------------------------------------|

[Verse]
e|-----------0-2-0---------------0-2-0---------------|
B|----5-2-0--------2-0----5-2-0--------2-0-----------|  (x2)
G|---------------------------------------------------|
D|---------------------------------------------------|
A|---------------------------------------------------|
E|---------------------------------------------------|

[Chorus]
e|----0---0--0---0--0-0--0-0----0---0--0---0-----------------------------------|
B|---12--14--7--12--5-4--2-0---12--14--9--12-----------------------------------|
G|----------------------------------------------------------------9-11---------|
D|-----------------------------------------------------------9-11--------------|
A|------------------------------------------------------9-11-------------------|
E|-----------------------------------------------9--12-------------------------|

e|-----------------------------------------------------------------------------|
B|--9-12--/15~~~---------------------------------------------------------------|
G|-----------------------------------------------------------------------------|
D|-----------------------------------------------------------------------------|
A|-----------------------------------------------------------------------------|
E|-----------------------------------------------------------------------------|

[Solo]
e|----12-12-12~~11~~-----7-7-7~~-------7-7-7/9~~~--9-9-9p7-7-7-7-----------|
B|--------------------------------5~~--------------------------------------|
G|-------------------------------------------------------------------------|    (x2)
D|-------------------------------------------------------------------------|
A|-------------------------------------------------------------------------|
E|-------------------------------------------------------------------------|

e|---------------------------------------------------------------------------|
B|---------------------------------------------------------------------------|
G|--6--6--6--6\--------------------------------------------------------------|
D|--6--6--6--6\--------------------------------------------------------------|
A|--4--4--4--6\--------------------------------------------------------------|
E|---------------------------------------------------------------------------|


************************************

| /  Slide up
| ~  Vibrato
| p  Pull-off
| \  Slide down

************************************
Suggest correction
comments
print report bad tab
2 comments total.
0 reply
Guitarmaster94 498 Nov 02, 2008 09:18 AM

gr8 tab man, i love this song ... one thing though, i think that in the solo he plays the B string with some of the notes in there.

0 reply
rikisola 118 May 16, 2009 06:37 AM

Nice Tab, I love this song.
But I'm pretty sure that the part that Gilbert plays during the verse is something like that: (I saw it in one of his videos)

E----------------------------|
B----------------------------|
G--9------9--9--------------·|
D----11-9------11-9---------·|
A----------------------------|
E----------------------------|

Repeated hundreds of times, lol

guest
You may want to rate the tab now too:
select rating
Wanna post a correction for this tab? Suggest correction