Oops, an error
Loading. Please wait.

To Be With You Tab

version 1
version 1

Solo

Whole song

179,496 views 174 this week
7 commentsread comments
1 2 3 4 5
x 23
add to favorites
launch autoscroll
font size
0
reset
how to read this tab
guitar tuner
Autoscroll
slow
fast
+/-
esc
set tempo
stop
Help us to improve Ultimate-Guitar.com Take our survey!
×
[Solo]

e|-----------------------|--------------------------|
B|-----------5-----------|--------------------------|
G|-1--2/-4-----6----4----|-4----4-------------------|
D|-2--4/-6-----7----7----|-4----4--6p4h6------------|
A|-----------------------|--------------------------|
E|-----------------------|--------------------------|

                            
e|------------------4~~~-|-2h4p2p0-----0--0-----------|
B|-----------5---~~~-5---|----------0--0--0-----------|
G|-1--2/-4-----6---------|----------------------------|
D|-2--4/-6-----7---------|----------------------------|
A|-----------------------|----------------------------|
E|-----------------------|---------------------0------|

                
e|-----------------------|----------------------------|
B|-----------5-----------|--7----9--9----------12-10--|
G|-1--2/-4-----6----4----|--8----9--9---------9--9----|
D|-2--4/-6-----7----7----|--9----11-11----9-11--------|
A|-----------------------|-------------/11------------|
E|-----------------------|----------------------------|

                                                       
e|--~~~---------------4~~|-2h4p2p0--0---12-----------|
B|-9---10--12---------5--|--------0-----12-----------|
G|------------/9---~~----|--------------------11/13--|
D|---------------11\-----|---------------------------|
A|-----------------------|---------------------------|
E|-----------------------|---------------------------|


************************************

| h  Hammer-on
| p  Pull-off
| /  Slide up
| \  Slide down
| ~  Vibrato

************************************
Suggest correction
comments
print report bad tab
7 comments total. Showing first comments.
0 reply
rockgodgeorge 154 Apr 19, 2006 07:21 AM

perfect tab.but wait...I think I saw this before................

0 reply
GetOutOfMyYard 60 Jun 08, 2007 12:46 AM

It isn't completely right..

0 reply
simo9852 10 Aug 06, 2008 02:56 AM

-----------------------|----------------------------|
-----sl----5-----------|--7----9--9----------12-10--|
-1--2/-4-----6----4----|--8----9--9---------9--9----|
-2--4/-6-----7----7----|--9----11-11----9-11--------|
-----------------------|-------------/11------------|
-----------------------|----------------------------|

should be

-----------------------|----------------------------|
-----sl----5-----------|--7----9--9---------12-10---|
-1--2/-4-----6----4----|--8----9--9-----------------|
-2--4/-6-----7----7----|--9----11-11----9-11--9-----|
-----------------------|-------------/11------------|
-----------------------|----------------------------|

guest
You may want to rate the tab now too:
select rating
Wanna post a correction for this tab? Suggest correction