Oops, an error
Loading. Please wait.

To Be With You Chords

version 3
version 3

Whole song

25,698 views 186 this week
2 commentsread comments
1 2 3 4 5
x 12
add to favorites
launch autoscroll
font size
0
reset
transpose
0
reset
simplify chords
display chords
guitar tuner
Autoscroll
slow
fast
+/-
esc
set tempo
stop
Help us to improve Ultimate-Guitar.com Take our survey!
×
Author
Difficulty
advanced
[Verse 1]
C#m     E
Hold on little girl
Asus2             E
Show me what he's done to you
C#m      E
Stand up little girl
Asus                 E
A broken heart can't be that bad

[Bridge]
Asus2               E
When it's through, it's through 
Asus2               E
Fate will twist the both of you 
D
So come on baby come on over 
B
Let me be the one to show you

[Chorus]
E               Asus2    B       E
I'm the one who wants to be with you
E             Asus2    B       E
Deep inside I hope you feel it too
E           Asus2    B       C#m
Waited on a line of greens and blues
E              Asus2   B       E
Just to be the next to be with you

[Verse 2]
C#m      E
Build up your confidence
Asus2            E
So you can be on top for once
C#m     E
wake up who cares about
Asus2            E
Little boys that talk too much

[Bridge]
Asus2               E
I've seen it all go down 
Asus2                     E
Your game of love was all rained out
D
So come on baby, come on over
B
Let me be the one to hold you

[Chorus]
E               Asus2    B       E
I'm the one who wants to be with you
E             Asus2    B       E
Deep inside I hope you feel it too
E           Asus2    B       C#m
Waited on a line of greens and blues
E              Asus2   B       E
Just to be the next to be with you

(Middle 8)
Asus2             C#m
Why be alone when we can be together baby
G
You can make my life worthwhile
G
And I can make you start to smile

[Solo]
Smile
e|---------------------------------2h4---------------------------4-----2h4p2p0-------0-0---------|
B|----------5--------------------------2h4p2h4-----------5-------5-----0---------0---0-0---------|
G|-1--2--4--4----6--4--4--4---------------------1--2--4--4----6----------------------------------|
D|-2--4--6-------7--6--4--4h6p4h6---------------2--4--6-------7----------------------------------|
A|-----------------------------------------------------------------------------------------------|
E|----------------------------------------------------------------------------------------0------|

e|-----------------------------------------------------------------------------------------------|
B|----------5-----------7--9--9---------------------------12---10---9h10---13/12-----------------|
G|-1--2--4--4----6--4---8--9--9-------------11h13p11h13-9----9----9--------------10/9------------|
D|-2--4--6-------7--6---9--11-1-1------9h11--------------------------------------------12/11-----|
A|---------------------------------9/11----------------------------------------------------------|
E|-----------------------------------------------------------------------------------------------|

e|--4----2h4p2p0--2--12--------------------------------------------------------------------------|
B|--5----0-----------12--------------------------------------------------------------------------|
G|-------------------------11~/13~---------------------------------------------------------------|
D|-----------------------------------------------------------------------------------------------|
A|-----------------------------------------------------------------------------------------------|
E|-------------------------0---------------------------------------------------------------------|

[Bridge]
Asus2               E
When it's through, it's through 
Asus2               E
Fate will twist the both of you 
D
So come on baby come on over 
B
Let me be the one to show you

[Chorus] 
(Played in the key of G instead of E)
G               Cadd9    D       G
I'm the one who wants to be with you
G             Cadd9    D       G
Deep inside I hope you feel it too
G           Cadd9    D       Em
Waited on a line of greens and blues
G             Cadd9   D       G
Just to be the next to be with you 

[Chorus]
(Revert to E key)
E               Asus2    B       E
I'm the one who wants to be with you
E             Asus2    B       E
Deep inside I hope you feel it too
E           Asus2    B       C#m
Waited on a line of greens and blues
E              Asus2   B       E
Just to be the next to be with you 
E              Asus2   B       E
Just to be the next to be with you 
Suggest correction
comments
print report bad tab
2 comments total.
0 reply
yellalla 10 May 30, 2016 05:26 PM

Cadd9:x32033

0 reply
justabaldguy 72 Nov 14, 2016 10:58 PM

Excellent.

guest
You may want to rate the tab now too:
select rating
Wanna post a correction for this tab? Suggest correction