Oops, an error
Loading. Please wait.

Pink Cigarette chords

version 5
version 5

Whole song

Interactive

58 views 6 this week
no commentswrite comment
1 2 3 4 5
3 more votes to show rating
add to favorites
×
Save as Personal and add changes to this tab that will be seen only by you. Learn more ›
×
You can save this tab as Personal to edit and correct it or add notes. All changes will be seen only by you. Learn more »
launch autoscroll
font size
0
reset
transpose
0
reset
simplify chords
display chords
guitar tuner
edit
Autoscroll
slow
fast
+/-
esc
set tempo
stop
About this tab version
This version of “Pink Cigarette” tabs some chord-melody. The song, as recorded on the California album, is in B. The Verses are interestingly in the Phrygian Dominant mode. The Dominant form of this scale includes a D# in addition to F# (B C D# E F# G A). The Refrain is in B major (B C# D# E F# G# A#). Was this info helpful? Yes No
Strumming
There is no strumming pattern for this song yet. and get +5 IQ
This is a version containing chord-melody tab.

Chord voicings:
   B(I)[verse] F#m(v) Amº7(viiº7) Em(iv) G#m(vi) D#m(iii) F#(V) E(IV) C#m(ii)  B[coda & refrain]
E|-2------------2------2-----------3-------4-------(6)-----------4-----4------------|
B|-4------------2------1-----------0-------4--------7------7-----5-----5--------4---|
G|-4------------2------2-----------0-------4--------8------6-----4-----6--------4---|
D|-4------------4------1-----------2-------6--------8------4-----6-----6--------4---|
A|-2------------4------0-----------2-------6--------6------4-----7-----4--------6---|
E|--------------2------------------0-------4--------6------------0--------------7---|

Chord-melody:
[Verse]
Beat
     1     2          3   4
E|---2----------2h3p2--------|
B|---4-----4-5--------4---4--|
G|---4-----4----------4---4--|
D|---4-----4----------4---4--|
A|---2-----2----------2---2--|
E|-2-------------------------|

Beat
     1    2   3   4   1
E|---------------------------|
B|------------2-------4/5\4--|
G|---2----4---2-------4------|
D|---4----4---4---4---4------|
A|---4----4---4---4---2------|
E|-2-2----2---2---2----------|

Pickup to refrain

Beat    
       1  2  3  4
E|--------------------|
B|--------------------|
G|--------------------|
D|--------------------|
A|----------2-2-2--1--|
E|--------------------|

[Start of Refrain]
Beat
   1  2  3  4   1  2   3  4  1  2  3  4   1   
E|-4----------7------4------------------6----
B|-4--------7-4-7--7-4-------7--------7-7-7--
G|-4--------6-4-6--4-4-------8--------8-8-8--
D|-6--------3-4-3--6-6-------8--------8---8--
A|-6--------3------6-6-------6--------6---6--
E|-4------------6--4-4-------6--------6---6--

[Verse]
B
Hush me, touch me
F#m
Perfume, the wind,
B
And the leaves
B
Hush me, touch me
F#m
The burns, the holes
B
In the sheets

[Pre-Refrain]
B
I'm hoping the
Adim7
Smoke hides the
Em
Shame I've got on my
B
Face
B 
Cognac and broken 
Adim7
Glass -- all these
Em
Years I've been your ash
B
Tray: I found a

[Refrain]
G#m     
Pink Cigarette on the bed the
D#m
Day that you left -- and how can I
G#m
Forget that your
G#m
Lips
F#
Were
B
There? Your kiss goes
F#
Everywhere -- touches
E
Everthing but
B
Me

[Verse]
B
Hush me, touch me
F#m
Champagne, your hair
B
In the breeze
B
Hush me, touch me
F#m
Lipstick, a slap on
B
My cheek
B
Your eyes cried at
Adim7
Last -- told me
Em
Everything I was afraid to
B
Ask
B
Now I'm dressed in
Adim7
White, and you've
Em
Burned me for the last
B
Time: I found a

[Refrain]
G#m
Pink Cigarette on the bed the
D#m
Day that you left -- and how can I
G#m
Forget that your
G#m
Lips
F#
Were
B
There? Your kiss goes
F#
Everywhere -- touches
E
Everthing but
B
Me: You'll find a

[Coda]
G#m
Note, and you'll see my
C#m
Silhouette
E G#m
B
There's just 5
G#m
Howls left until you find me
C#m
Dead
E G#m
B
There's just 4
G#m
Howls left until you find me
C#m
Dead
E G#m
B
There's just 3
G#m
Howls left until you find me
C#m
Dead
E G#
B
There's just 2
G#m
Howls left until you find me
C#m
Dead
E G#
B
There's 1 more
G#m
Howl left and you will find me
C#m
Dead
E G#
B
There's just...

[The album recording of the song ends on a high G pitch]

            
            
Suggest correction
Creating personal tab
Creating personal tab
You can edit any tab online and save it as your Personal.

You can edit, replace or remove any tab part or add personal notes – all changes will be seen only by you.

Personal tabs can be accessed anytime from any device, even offline.
Learn more »
Give kudos to tab author, rate the tab!
1 2 3 4 5
comments
print report bad tab
guest
You may want to rate the tab now too:
select rating
Wanna post a correction for this tab? Suggest correction