Oops, an error
Loading. Please wait.

Quote Unquote Tab

version 3
version 3

Whole song

Interactive

10 views 3 this week
no commentswrite comment
1 2 3 4 5
1 last vote to show rating
add to favorites
launch autoscroll
font size
0
reset
how to read this tab
guitar tuner
Autoscroll
slow
fast
+/-
esc
set tempo
stop
Help us to improve Ultimate-Guitar.com Take our survey!
×
Author
Difficulty
Tuning
novice
D A D G B E
About this tab version
One of the first full song tabs on ultimate guitar. Was this info helpful? Yes No
Guitar 1: Drop D

Guitar 2: Drop D

Intro ONLY GUITAR 1
e|------------------------------------------------------------------------|
B|------------------------------------------------------------------------|
G|------------------------------------------------------------------------|
D|------------------------------------------------------------------------| 2x
A|-4-------1---0----------------------------------------------------------|
D|-4-------1---0----------------------------------------------------------|

e|------------------------------------------------------------------------|
B|------------------------------------------------------------------------|
G|------------------------------------------------------------------------|
D|------------------------------------------------------------------------|
A|-4-4---4-4---4-4---4-4---1-1---0-0---4-4---4-4---4-4---4-4---0--0--0--0-|
D|-4-4---4-4---4-4---4-4---1-1---0-0---4-4---4-4---4-4---4-4---0--0--0--0-|


  Verse
e|------------------------------------------------------------------------|
B|-6b--6b--6b--6b--5b-5b--5b--5b------------------------------------------|
G|------------------------------------------------------------------------|
D|------------------------------------------------------------------------|10x
A|------------------------------------------------------------------------|
D|------------------------------------------------------------------------|

All behold the spectacle
A fleshy limbless rectangle
Sitting on a pedestal
So nasal handicapable


Guitar 2
e|------------------------------------------------------------------------|
B|--2-2-2-2-2-2-2-2-2-2-2-2-----------------------------------------------|
G|---------------------------3-3-3-3/5-5-5-5-5-5-5-5/8-8-8-8-8-8-8-8------|
D|------------------------------------------------------------------------|
A|------------------------------------------------------------------------|
D|------------------------------------------------------------------------|

e|------------------------------------------------------------------------|
B|--2-2-2-2-2-2-2-2-2-2-2-2-----------------------------------------------|
G|---------------------------3-3-3-3/5-5-5-5-5-5-5-5-0-0-0-0-1-1-1-1------|
D|------------------------------------------------------------------------|
A|------------------------------------------------------------------------|
D|------------------------------------------------------------------------|

Sniff and remember silver ball
Contortions that he can't recall
The torso on a trampoline
The happiness melts into dream


Repeat Guitar 2 2x

After Chorus and Bridge
e|------------------------------------------------------------------------|
B|------------------------------------------------------------------------|
G|------------------------------------------------------------------------|
D|------------------------------------------------------------------------|
A|--3-----3-3-3-3-3-4-1-0------8-8-4-3-1----------------------------------|
D|--3-----3-3-3-3-3-4-1-0------8-8-4-3-1----------------------------------|

One thought it lasts a day and at that rate he'll most likely live forever!

e|------------------------------------------------------------------------|
B|------------------------------------------------------------------------|
G|------------------------------------------------------------------------|
D|------------------------------------------------------------------------|
A|--3-----3-3-3-3-3-4-1-0------8-8-4-3-1----------------------------------|
D|--3-----3-3-3-3-3-4-1-0------8-8-4-3-1----------------------------------|

He's a bird in flight, a hermaphrodite
And he fucks himself as he fucks the world

e|------------------------------------------------------------------------|
B|------------------------------------------------------------------------|
G|------------------------------------------------------------------------|
D|------------------------------------------------------------------------| 2x
A|-4-------1---0----------------------------------------------------------|
D|-4-------1---0----------------------------------------------------------|

e|------------------------------------------------------------------------|
B|------------------------------------------------------------------------|
G|------------------------------------------------------------------------|
D|------------------------------------------------------------------------|
A|-4-4---4-4---4-4---4-4---1-1---0-0---4-4---4-4---4-4---4-4---0--0--0--0-|
D|-4-4---4-4---4-4---4-4---1-1---0-0---4-4---4-4---4-4---4-4---0--0--0--0-|


  Verse
e|------------------------------------------------------------------------|
B|-6b--6b--6b--6b--5b-5b--5b--5b------------------------------------------|
G|------------------------------------------------------------------------|
D|------------------------------------------------------------------------|10x
A|------------------------------------------------------------------------|
D|------------------------------------------------------------------------|

His twitching brain can dance within
Gyrating more like gelatin

Guitar 2
e|------------------------------------------------------------------------|
B|--2-2-2-2-2-2-2-2-2-2-2-2-----------------------------------------------|
G|---------------------------3-3-3-3/5-5-5-5-5-5-5-5/8-8-8-8-8-8-8-8------|
D|------------------------------------------------------------------------|
A|------------------------------------------------------------------------|
D|------------------------------------------------------------------------|

A secret means of ecstasy
Acute and very olfactory

e|------------------------------------------------------------------------|
B|--2-2-2-2-2-2-2-2-2-2-2-2-----------------------------------------------|
G|---------------------------3-3-3-3/5-5-5-5-5-5-5-5-0-0-0-0-1-1-1-1------|
D|------------------------------------------------------------------------|
A|------------------------------------------------------------------------|
D|------------------------------------------------------------------------|

e|------------------------------------------------------------------------|
B|------------------------------------------------------------------------|
G|------------------------------------------------------------------------|
D|------------------------------------------------------------------------|
A|--3-----3-3-3-3-3-4-1-0------8-8-4-3-1----------------------------------|
D|--3-----3-3-3-3-3-4-1-0------8-8-4-3-1----------------------------------|

After Chorus

e|------------------------------------------------------------------------|
B|------------------------------------------------------------------------|
G|------------------------------------------------------------------------|
D|------------------------------------------------------------------------|
A|--3-----3-3-3-3-3-4-1-0------8-8-4-3-1----------------------------------|
D|--3-----3-3-3-3-3-4-1-0------8-8-4-3-1----------------------------------|

He's got an itch but nothing with which to scratch the itch - so wish it away

e|------------------------------------------------------------------------|
B|------------------------------------------------------------------------|
G|------------------------------------------------------------------------|
D|------------------------------------------------------------------------|
A|--3-----3-3-3-3-3-4-1-0------8-8-4-3-1----------------------------------|
D|--3-----3-3-3-3-3-4-1-0------8-8-4-3-1----------------------------------|

With his mouth sewn shut, he still shakes his butt
'cause he's Hitler & Swayze & Trump & Travolta

e|------------------------------------------------------------------------|
B|------------------------------------------------------------------------|
G|------------------------------------------------------------------------|
D|------------------------------------------------------------------------|
A|-3-4----1-2----3-4------------------------------------------------------|
D|-3-4----1-2----3-4------------------------------------------------------|

| /  slide up
| \  slide down
| h  hammer-on
| p  pull-off
| ~  vibrato
| +  harmonic
| x  Mute note
| b Bend
Suggest correction
Give kudos to tab author, rate the tab!
1 2 3 4 5
comments
print report bad tab
guest
You may want to rate the tab now too:
select rating
Wanna post a correction for this tab? Suggest correction