Oops, an error
Loading. Please wait.

Plastic Shadow Tab

7 views 3 this week
no commentswrite comment
1 2 3 4 5
3 more votes to show rating
add to favorites
launch autoscroll
font size
0
reset
how to read this tab
guitar tuner
Autoscroll
slow
fast
+/-
esc
set tempo
stop
Help us to improve Ultimate-Guitar.com Take our survey!
×
Author
Difficulty
intermediate
About this tab version
Arranged for guitar in standard tuning, though Nicole tunes down a step. Was this info helpful? Yes No
mr. Gnome
"Plastic Shadows"

Standard tuning.


[Intro]

Just drums.


[Verse 1]

  Deaden the strings by loosely fretting a B5 chord. 
e|------------------------|------------------------|------------------------|------------------------|
B|------------------------|------------------------|------------------------|------------------------|
G|------------------------|------------------------|------------------------|------------------------|
D|------x-----------x-----|------x-----------x-----|------x-----------x-----|------x-----------------|
A|x-----x-----x-----x-----|x-----x-----x-----x-----|x-----x-----x-----x-----|x-----x-----x-----9-9-9-|
E|x-----------x-----------|x-----------x-----------|x-----------x-----------|x-----------x-----7-7-7-|
                                                                                                     |(x2)
e|------------------------|------------------------|------------------------|------------------------|
B|------------------------|------------------------|------------------------|------------------------|
G|------------------------|------------------------|------------------------|------------------------|
D|9-----------------------|------------------------|------x-----------x-----|------x-----------x-----|
A|9-----------------------|------------------------|x-----x-----x-----x-----|x-----x-----x-----x-----|
E|7-----------------------|------------------------|x-----------x-----------|x-----------x-----------|

B|------------------------|------------------------|------------------------|------------------------|
G|------------------------|------------------------|------------------------|------------------------|
D|------x-----------x-----|------x-----------x-----|------x-----------x-----|------x-----------------|
A|x-----x-----x-----x-----|x-----x-----x-----x-----|x-----x-----x-----x-----|x-----x-----x-----9-9-9-|
E|x-----------x-----------|x-----------x-----------|x-----------x-----------|x-----------x-----7-7-7-|

e|------------------------|------------------------|------------------------|------------------------|
B|------------------------|------------------------|------------------------|------------------------|
G|------------------------|------------------------|------------------------|------------------------|
D|9-----------------------|------------------------|------------------------|------------------------|
A|9-----------------------|------------------------|9-----9-----9-----9-----|9-----9-----9-----7-----|
E|7-----------------------|------------------------|7-----7-----7-----7-----|7-----7-----7-----7-----|

e|------------------------|------------------------|
B|------------------------|------------------------|
G|------------------------|------------------------|
D|5-----5-----5-----5-----|5-----5-----5-----------|
A|x-----x-----x-----x-----|x-----x-----x-----------|
E|3-----3-----3-----3-----|3-----3-----3-----7h10p7|


[Chorus]

e|------------------------|------------------------|------------------------|------------------------|
B|------------------------|------------------------|------------------------|------------------------|
G|------------------------|------------------------|------------------------|------------------------|
D|------------------7---7-|7---7/9---9-7---7-------|------------------7---7-|7---7/9---9-7---7-------|
A|----7-9---9-----9-------|------------------9---9-|----7-9---9-----9-------|------------------9---9-|
E|7h10--------7h10--------|------------------------|7h10--------7h10--------|------------------------|

e|------------------------|------------------------|------------------------|------------------------|
B|------------------------|------------------------|------------------------|------------------------|
G|------------------------|------------------------|------------------------|------------------------|
D|------------------7---7-|7---7/9---9-7---7-------|------------------7---7-|7---7/9---9-7---7-------|
A|----7-9---9-----9-------|------------------9---9-|----7-9---9-----9-------|------------------9-----|
E|7h10--------7h10--------|------------------------|7h10--------7h10--------|------------------7-----|

e|------------------------|------------------------|------------------------|------------------------|
B|------------------------|------------------------|------------------------|------------------------|
G|------------------------|------------------------|------------------------|------------------------|
D|------------------------|------------------------|------------------------|------------------------| 
A|5-5-5-5-----------------|5-5-5-5-----------------|5-5-5-5-----7-7-7-7-----|5-5-5-5-----7-7-7-5-5-5-|
E|3-3-3-3-----------------|3-3-3-3-----------------|3-3-3-3-----3-3-3-3-----|3-3-3-3-----3-3-3-3-3-3-|(x3)

e|------------------------|------------------------|------------------------|------------------------|
B|------------------------|------------------------|------------------------|------------------------|
G|------------------------|------------------------|------------------------|------------------------|
D|------------------7---7-|7---7/9---9-7---7-------|------------------7---7-|7---7/9---9-7---7-------|
A|----7-9---9-----9-------|------------------9---9-|----7-9---9-----9-------|------------------9---9-|
E|7h10--------7h10--------|------------------------|7h10--------7h10--------|------------------------|

e|------------------------|------------------------|------------------------|------------------------|
B|------------------------|------------------------|------------------------|------------------------|
G|------------------------|------------------------|------------------------|------------------------|
D|------------------7---7-|7---7/9---9-7---7-------|------------------7---7-|7---7/9---9-7---7-------|
A|----7-9---9-----9-------|------------------9---9-|----7-9---9-----9-------|------------------9-----|
E|7h10--------7h10--------|------------------------|7h10--------7h10--------|------------------7-----|


[Break]

Just drums, same as the Intro.


[Verse 2]

e|------------------------|------------------------|------------------------|------------------------|
B|------------------------|------------------------|------------------------|------------------------|
G|------------------------|------------------------|------------------------|------------------------|
D|------x-----------x-----|------x-----------x-----|------x-----------x-----|------x-----------------|
A|x-----x-----x-----x-----|x-----x-----x-----x-----|x-----x-----x-----x-----|x-----x-----x-----9-9-9-|
E|x-----------x-----------|x-----------x-----------|x-----------x-----------|x-----------x-----7-7-7-|
                                                                                                     |(x2)
e|------------------------|------------------------|------------------------|------------------------|
B|------------------------|------------------------|------------------------|------------------------|
G|------------------------|------------------------|------------------------|------------------------|
D|9-----------------------|------------------------|------x-----------x-----|------x-----------x-----|
A|9-----------------------|------------------------|x-----x-----x-----x-----|x-----x-----x-----x-----|
E|7-----------------------|------------------------|x-----------x-----------|x-----------x-----------|

e|------------------------|------------------------|------------------------|------------------------|
B|------------------------|------------------------|------------------------|------------------------|
G|------------------------|------------------------|------------------------|------------------------|
D|9-----------------------|------------------------|------------------------|------------------------|
A|9-----------------------|------------------------|9-----9-----9-----9-----|9-----9-----9-----7-----|
E|7-----------------------|------------------------|7-----7-----7-----7-----|7-----7-----7-----7-----|

e|------------------------|------------------------|
B|------------------------|------------------------|
G|------------------------|------------------------|
D|5-----5-----5-----5-----|5-----5-----5-----------|
A|x-----x-----x-----x-----|x-----x-----x-----------|
E|3-----3-----3-----3-----|3-----3-----3-----7h10p7|


[Chorus]

e|------------------------|------------------------|------------------------|------------------------|
B|------------------------|------------------------|------------------------|------------------------|
G|------------------------|------------------------|------------------------|------------------------|
D|------------------7---7-|7---7/9---9-7---7-------|------------------7---7-|7---7/9---9-7---7-------|
A|----7-9---9-----9-------|------------------9---9-|----7-9---9-----9-------|------------------9---9-|
E|7h10--------7h10--------|------------------------|7h10--------7h10--------|------------------------|

e|------------------------|------------------------|------------------------|------------------------|
B|------------------------|------------------------|------------------------|------------------------|
G|------------------------|------------------------|------------------------|------------------------|
D|------------------7---7-|7---7/9---9-7---7-------|------------------7---7-|7---7/9---9-7---7-------|
A|----7-9---9-----9-------|------------------9---9-|----7-9---9-----9-------|------------------9-----|
E|7h10--------7h10--------|------------------------|7h10--------7h10--------|------------------7-----|

e|------------------------|------------------------|------------------------|------------------------|
B|------------------------|------------------------|------------------------|------------------------|
G|------------------------|------------------------|------------------------|------------------------|
D|------------------------|------------------------|------------------------|------------------------| 
A|5-5-5-5-----------------|5-5-5-5-----------------|5-5-5-5-----7-7-7-7-----|5-5-5-5-----7-7-7-5-5-5-|
E|3-3-3-3-----------------|3-3-3-3-----------------|3-3-3-3-----3-3-3-3-----|3-3-3-3-----3-3-3-3-3-3-|(x3)

e|------------------------|------------------------|------------------------|------------------------|
B|------------------------|------------------------|------------------------|------------------------|
G|------------------------|------------------------|------------------------|------------------------|
D|------------------7---7-|7---7/9---9-7---7-------|------------------7---7-|7---7/9---9-7---7-------|
A|----7-9---9-----9-------|------------------9---9-|----7-9---9-----9-------|------------------9---9-|
E|7h10--------7h10--------|------------------------|7h10--------7h10--------|------------------------|

e|------------------------|------------------------|------------------------|------------------------|
B|------------------------|------------------------|------------------------|------------------------|
G|------------------------|------------------------|------------------------|------------------------|
D|------------------7---7-|7---7/9---9-7---7-------|------------------7---7-|7---7/9---9-7---7-------|
A|----7-9---9-----9-------|------------------9---9-|----7-9---9-----9-------|------------------9-----|
E|7h10--------7h10--------|------------------------|7h10--------7h10--------|------------------7-----|


[Bridge]

 w/ Octave effect doubling one octave down
e|------------------------|------------------------|------------------------|------------------------|
B|------------------------|------------------------|------------------------|------------------------|
G|------------------------|------------------------|------------------------|------------------------|
D|------------------------|------9-----7-----------|------------------------|------9-----7-----------|
A|------------------------|------------------9-----|------------------------|------------------9-----|
E|------------------------|------------------------|------------------------|------------------------|(x2)


[Chorus]

e|------------------------|------------------------|------------------------|------------------------|
B|------------------------|------------------------|------------------------|------------------------|
G|------------------------|------------------------|------------------------|------------------------|
D|------------------7---7-|7---7/9---9-7---7-------|------------------7---7-|7---7/9---9-7---7-------|
A|----7-9---9-----9-------|------------------9---9-|----7-9---9-----9-------|------------------9---9-|
E|7h10--------7h10--------|------------------------|7h10--------7h10--------|------------------------|

e|------------------------|------------------------|------------------------|------------------------|
B|------------------------|------------------------|------------------------|------------------------|
G|------------------------|------------------------|------------------------|------------------------|
D|------------------7---7-|7---7/9---9-7---7-------|------------------7---7-|7---7/9---9-7---7-------|
A|----7-9---9-----9-------|------------------9---9-|----7-9---9-----9-------|------------------9-----|
E|7h10--------7h10--------|------------------------|7h10--------7h10--------|------------------7-----|

e|------------------------|------------------------|------------------------|------------------------|
B|------------------------|------------------------|------------------------|------------------------|
G|------------------------|------------------------|------------------------|------------------------|
D|------------------------|------------------------|------------------------|------------------------|
A|5-5-5-5-----------------|5-5-5-5-----------------|5-5-5-5-----5-5-5-5-----|5-5-5-5-----5-5-5-5-5-5-|
E|3-3-3-3-----------------|3-3-3-3-----------------|3-3-3-3-----3-3-3-3-----|3-3-3-3-----3-3-3-3-3-3-|

e|------------------------|
B|------------------------|
G|------------------------|
D|------------------------|
A|5-5-5-5-----------------|
E|3-3-3-3-----------------|



***********************************

| h   Hummer-on
| p   Pull-off
| /   Slide up
| x   Dead note

***********************************
Suggest correction
Give kudos to tab author, rate the tab!
1 2 3 4 5
comments
print report bad tab
guest
You may want to rate the tab now too:
select rating
Wanna post a correction for this tab? Suggest correction